Chordie logo


Everything Is Cool    Reel Big Fish



T1: Geoff Morrissey, pmorrissey03@snet.net, Reel Big Fish, Everything
Is Cool, 1998

S1:
Intro:             Guitar Fill
E--4-x-4-x-5-5-5--|---------|
B--5-x-4-x-5-5-5--|---------|
G.-6-x-4-x-6-6-6-.|---------|
D.---------------.|-9-9-9/4-|
A-----------------|-9-9-9/4-|
E-----------------|-7-7-7/2-|
Play Intro 12 times with the Guitar fill every fourth time.

Verse:    Play 4x                Play 4x
E----------------|----------------------|
B----------------|----------------------|
G.--------------.|.-11-11----11-9-9-12-.|
D.-4-4--4-2-2-5-.|.-11-11----11-9-9-12-.|
A--4-4--4-2-2-5--|---9--9-----9-7-7-10--|
E--2-2--2-0-0-3--|----------------------|

Chorus:      Play 4x Post Chorus:
E--4-4-5-5-7-7-7-7--|------------------------|
B--5-5-5-5-7-7-7-7--|------------------------|
G.-4-4-6-6-8-8-8-8-.|.---------x-9\8--------.|
D.-----------------.|.-----6-7-x-x\x-9\7--\-.|
A-------------------|--2-2-6-7-x-7\6-x\x--\--|
E-------------------|--0-0-4-5-------7\5--\--|

Repeat Intro 8x with Guitar Fill every fourth time
Repeat Verse and Chorus and 1st bar of Post Chorus

Fill: (play in place of last bar of post-chorus)
E---------------------------|
B---------------------------|
G---------------------------|
D-------7-------------------|
A-2-2-6-7-7-7-7-7-7-7-7-7-x-|
E-0-0-4-5-5-5-5-5-5-5-5-5-x-|
          PM-------------

Guitar Solo: (with Wah-Wah)
E------------------------------------------------------------------------|
B------------------------------------------------------------------------|
G---------------------------12---11h12p11---12-11-9----------------------|
D----------------6--\x-x-11-------------------------11---------9-11-9----|
A--4-----6-7-6-4------------------------------------------9-11--------11-|
E------------------------------------------------------------------------|

Bridge:                 Play 3x
E-------------------------------|---------------------------|
B-------------------------------|---------------------------|
G.-----------------------------.|---------------------------|
D.-9-----9-9-9\6-6-6/7---7-7-7-.|-9-----9-9-9\6-----7-------|
A--9-----9-9-9\6-6-6/7---7-7-7--|-9-----9-9-9\6-----7-------|
E--7-----7-7-7\4-4-4/5---5-5-5--|-7-----7-7-7\4-----5-------|

Play intro four times then go fucking crazy for 4 bars
Play Chorus twice then:

E--4-4-5-5-7-7-x-x-x-x--|-4-4-5-5---------|
B--5-5-5-5-7-7-x-x-x-x--|-5-5-5-5---------|
G.-4-4-6-6-8-8-x-x-x-x-.|-4-4-6-6---------|
D.-------------x-x-x-x-.|-----------------|
A--------------x-x-x-x--|---------9-9-9-9-|
E--------------x-x-x-x--|---------7-7-7-7-|
                                  PM-----

Play Post Chorus 3 times

Ending:
E---------4-4-4-5-|
B---------5-5-4-5-|
G---------6-6-4-6-|
D-----------------|
A-2-2-6-7---------|


Important: The song above is NOT stored on the Chordie server. The original song is hosted at www.xguitar.com. Chordie works as a search engine and provides on-the-fly formatting. Chordie does not index songs against artists/composers will. To remove this song please click here.

This song is displayed as text-only. Transposing and tuning is only available for chordpro-songs.

Login - add to songbook

Rating click stars to rate

Layout
Accuracy

SHARE PAGE  




You need to log in to post comments