Guitar Tabs, Chords and Lyrics


The Kids Don't Like It    Reel Big Fish



Band: Reel big fish
Song: The kids dont like it
Tabber: Gary Gatehouse


I havent seen any tabs for this so i thought i better give it a go!

Intro and bridge

e|-------------x-x-x--4-4--------------x-x-x-6---
B|-------------x-x-x-------------------x-x-x-6---
G|-----------------------------------------------
D|---------6-6-----------------------------------
A|---3-6-3-------------------3-6-3-4-4-----------
E|-4-----------------------4---------------------


Verses(ska strokes)These chords but youll ave to figure out how may times to strum them

e|-4--------------------------------
B|-4-6-4----------------------------
G|-5-6-5----------------------------
D|---6-6----------------------------


Pre chourus

e|-3----------------3-----------------
B|-4----------------4-----------------
G|-5----------------5------6-6-6------
D|-----------3-5-6-----6---6-6-6------
A|-----3-4-6-----6-----6---4-4-4------
E|---4-----------4-----4--------------


Chourus

e|---------------------------------------
B|---------------------------------------
G|---6-8----6-------6--------------------
D|-6-6-8--6-6-8---6-6------8b------------
A|-6-4-6--6-4-8---6-4--------------------
E|-4------4---6---4----6-6---------------


Pre bridge

D|-10-11--------------------------
A|-10-11-10-11-13-----------------
E|-8--9---8-9--11-----------------


Now thats a pretty easy tab. for the verse, chourus and pre bridge youll have to figure out how many times to strum each chord but it is very easy to figure out.

please rate



Important: The song above is NOT stored on the Chordie server. The original song is hosted at www.xguitar.com. Chordie works as a search engine and provides on-the-fly formatting. Chordie does not index songs against artists'/composers' will. To remove this song please click here.

This song is displayed as text-only. Transposing and tuning is only available for chordpro-songs.

Login - add to songbook

Rating click stars to rate

Layout
Accuracy

SHARE PAGE  




You need to log in to post comments