Guitar Tabs, Chords and Lyrics


Victory Over Peter Bones (The Legend of Alan Guile Verses Peter Bones)    Reel Big Fish



Band: Reel Big Fish
Song: Victory Over Peter Bones
Album: Why Do They Rock so Hard?
Tabbed By: Dan

This is a sweet instrumental song on the new album, the tab is pretty
good, but if you see anything wrong email me with commnets or
questions; Lamar148@aol.com

Intro/Verse: D and C (for the verse, just play the intro without the
      little fills)
e----5-5--3-----------5-5--3----------------------------------
B----7-7--5-----------7-7--5-5--------------------------------
G----7-7--5-4---------7-7--5---5------------------------------
D----7-7--5---5-------7-7--5-----5-5/7------------------------
A-5~-5-5--3-----3-3/5-5-5--3----------------------------------
E-------------------------------------------------------------

PreChorus:
      G     A#
e-----4-----1---------------------------------------
B-----3-----3---------------------------------------
G-----4-----3---------------------------------------
D-----5-----3---------------------------------------
A-----5-----1---------------------------------------
E-----3---------------------------------------------

Solo:
e------------------------------------------------------------------
B------7-777------------------------12-10--------------------------
G-4-5--------765-5/7---12-----12^12-------12-11--------------------
D-4-5----------------9----9-8-------------------12-12h14p12--------
A-2-3-------------------------------------------------------14-12--
E------------------------------------------------------------------

e------------------------------------------------5------------5----
B------------------------------------------------7-----7--7---7----
G-----------------7-7-7--------------------------7----7-7--7--7----
D---12----12^12---7-7-7---2-3-4----5-5-5-4-3-2---7---7---7--7-7----
A-9---9-8---------5-5-5---2-3-4----5-5-5-4-3-2---5--5---------5----
E-------------------------0-1-2----3-3-3-2-1-0---------------------

e-3-----------3---------------------------------------------
B-5----5--5---5---------------------------------------------
G-5---5-5--5--5---------------------------------------------
D-5--5---5--5-5----5-----5----------------------------------
A-3-3---------3--2---2-1-----0-5-0-5------------------------
E-----------------------------------------------------------

There thats it, just listen to the cd to get the timings and all of the
strumming right, its a relaxing and fun song to play so give it a try.
I wrote out the whoel barre chord for each chord, but to get the right
sound just up-pick and just hit the higher notes the bass notes are


Important: The song above is NOT stored on the Chordie server. The original song is hosted at www.xguitar.com. Chordie works as a search engine and provides on-the-fly formatting. Chordie does not index songs against artists'/composers' will. To remove this song please click here.

This song is displayed as text-only. Transposing and tuning is only available for chordpro-songs.

Login - add to songbook

Rating click stars to rate

Layout
Accuracy

SHARE PAGE  




You need to log in to post comments