Guitar Tabs, Chords and Lyrics


Radio Free Europe  R.E.M

e ----0--0--0-0--0--0-0--0--0-0--0--0-0-0-0-0---


B -----0--0----0--0----0--0----0--0--0-0-0-0-0--


G ---3--3--3-3--3--3-2--2--2-2--2--2------------


e --0--0--0-0--0--0------4--------


B ---4--4----4--4---5-5-5-5-5-----


G -4--4--4-4--4--4-6-6-6---6-6----

[A]Beside yourself if radio's gon[D]na s[E]tay.
[A]Reason: it could polish up [D]the [E]grey.
[A]Put that, put that, put that up [D]your w[E]all
[A]That this isn't country [D]at a[E]ll
[F#]Raving[A] statio[EEAE]n,       b[F#]eside [A]yourself[B]
Keep me out of country in the word
Deal the porch is leading us absurd.
Push that, push that, push that to the hull
That this isn't nothing at all.
Straight off the boat, where to go?
[E]Calling on i[A]n transit, [E]calling on in t[A]ransit
[E]Radio [A]Free Europe[E] [A]
Beside defying media too fast
Instead of pushing palaces to fall
Put that, put that, put that before all
That this isn't fortunate at all
Raving station, beside yourself
Calling on in transit, calling on in transit
Radio Free Europe, radio.
[Bsus4]Decide y[C#]ourself, calling all[Bsus4] of the medias to[C#]o fast
Keep me out of country in the word
Disappoint is into us absurd
Straight off the boat, where to go?
Calling on in transit, calling on in transit
Radio Free Europe
[----]     From: Carlos Yuzo Shine (c_shine@mailexcite.com)
RADIO FREE EUROPE
"A": x02xxx
D : xx0232
"E": 02(2)xxx
e : xx2100
 e -------------------------2-------------0-------------
 B -------------------------3-------------0-------------
 G -------------------------2-------------1-------------
 D -2-2-2-2-2-2-2-2-2-2-2-2-0-------------2-------------
 A -0-0-0-0-0-0-0-0-0-0-0-0---2-2-2-2-2-2-------0-0-2---
 E ---------------------------0-0-0-0-0-0---4-4-------0-

"A" "D" "E" e
Beside yourself if radio's gonna stay, etc.

Important: The song above is NOT stored on the Chordie server. The original song is hosted at www.xguitar.com. Chordie works as a search engine and provides on-the-fly formatting. Chordie does not index songs against artists'/composers' will. To remove this song please click here.

Text color:
Chord color:
Chord grids: 
Font size:    
Page size: 

A B Bsus4 C# D E F#
variations - click chord images

Login - add to songbook

Transpose chords

Tuning

Rating click stars to rate

Layout
Accuracy

SHARE PAGE  




You need to log in to post comments