Guitar Tabs, Chords and Lyrics


Zither   R.E.M



ZITHER  (Instrumental)


F#: 244322    E: 022100         B: X24442    A: X02220
verse:

e-2--3--7---5\3----2--3--7--5--3--5                do this two times
b-3--5--8---7\5----3--5--8--7--5--7
chorus:

e--5--3--2----2----||:--2h3-2-0-----2---:||--2h3--2--0------------| (1st ending)
b----------3-----3-||:-----------3----3-:||-------------3---------|
g-----------------------------------------------------------3-----|
d--------------------------------------------------------------3--|

b--2--3 /5--1----------0--3--3--3--3--3---
g----- ----------2----2-----2--2--2--2--2-
d----- -------------3--------0--0--0--0--0
(2nd ending)
b---0-3---3--3--3--3--3--3--3--3--3--3--3-
g------2---2--2--2--2--2--2--2--2--2--2--2-          then go to the bridge
d------0---0--0--0--0--0--0--0--0--0--0--0-
bridge:
F#   B  E  A

ending:     e--2-----3-----7-----5
            b--3-----5-----8-----7
----

e----2------- 3------ /7-----------	5-----------	2-----------	3-----------
2-----------	3-----------	/7---------	5------------- 5	
B----3------- 5------ /8-----------	7-----------	3-----------5-----------
3-----------	5-----------	/8----------7---------7----	
G---------------------------------------------------------------------------
-------------------------------------------------------   	
	
e----2-----	3----------	/7---------	5----------	2----------	0-----------
2----------	3-----------	/7---------	5------------- 5	
B--- 3-----	5----------	/8---------	7-----------3----------	1-----------
3----------	5-----------	/8---------	7-------- 7-----	
G---------------------------------------------------------------------------
--------------------------------------------------------	
e---- 5 ----- 3   /  2 ------ 2--------- 2 h 3----- 2----- 0------ 2
----------  2 h 3 ----- 2--- 0 ------- 2--------------------		
B------------------------ 3------- 3 ---------------------------- 3---- 3
-------------------------------- 3------- 3---------------	
G---------------------------------------------------------------------------
----------------------------------------------------------											

e--- 2 h 3 ----- 2----
0---------------------------------------------------------------------------
--------- 2--- 2  2  2  2-------	
B---------------------------3 --------------  3----- 4  /  6
-------------------------------------- 3 ----- 3--- 3  3  3  3--------	
G---------------------------------3-------------------------------
5---------------------------- 3 ---------- 2--- 2  2  2  2-------	
D-------------------------------------3----------------------------------
2--------------- 0 ---------------- 0--- 0  0  0  0-------
A---------------------------------------------------------------------------
------ 3--------------------------------------------------
E---------------------------------------------------------------------------
-----------------------------------------------------------	    	
											

Bridge

PM -----------|              PM------------|                  PM---------|
PM------------|
e---------------------------------------------------------------------------
------------------------------------------------------------	
B--------------------------------------------------------3------------------
----------------------------------------------- 2 ---------		
G-------------------3------------------------------ 3--------
3-----------------------------1-------------------------- 2---- 2 ------
D------------- 4 ------4--------------------- 3 -----------------
3-------------------- 2 ------ 2---------------- 2 ----------- 2---	   
A----------4--------------4--------------2----------------------------------
--------2 --------------2------- 0	---------------------		
E---0--
2------------------------------------------------------------------------
0----------------------------------------------------					

2nd time
e-------------------------------------  				
B--- 2-- 2-- 2-- 2-- 2-- 2-- 2----- 	    	
G--- 2-- 2-- 2-- 2-- 2-- 2-- 2-----		
D--- 2-- 2-- 2-- 2-- 2-- 2-- 2-----		
A--- 0-- 0-- 0-- 0-- 0-- 0-- 0-----		
E-------------------------------------			
repeat

 outtro

e---- 2 --- 3 ---- / 7------5-------	
B---- 3 --- 5 ---- / 8------7-------	
G----------------------------7------- 	
D------------------------------------			


Important: The song above is NOT stored on the Chordie server. The original song is hosted at www.xguitar.com. Chordie works as a search engine and provides on-the-fly formatting. Chordie does not index songs against artists'/composers' will. To remove this song please click here.

This song is displayed as text-only. Transposing and tuning is only available for chordpro-songs.

Login - add to songbook

Rating click stars to rate

Layout
Accuracy

Jango Player

SHARE PAGE  




You need to log in to post comments