Guitar Tabs, Chords and Lyrics


Daysleeper  R.E.M

#cutline#


|-----------8--------|------------8-----|-----------8--------|------------8-----||


|--------9--------0--|-------0----------|--------9--------0--|-------0----------||


|--10---------10-----|--9---------------|--10---------10-----|--9---------------||


|--------------------|------------------|--------------------|------------------||


[--------------------@------------------@--------------------@------------------@]

[C]Receiv[Cmaj7]ing departm[C]ent, [Cmaj7]3 AM
[C]Staff [Cmaj7]cuts have s[C]ocked[Cmaj7] up the overage
[C]Direct[Cmaj7]ives are po[C]sted [Cmaj7]No call backs, complaints
[C]Everyw[Cmaj7]here is cal[C]m[Cmaj7]
VERSE TO CHORUS:
[D#]Hong Kong is present, [Dm]Taipei wakes up
[F]Talk of circadian[G] rhythm
CHORUS:
[C]I see toda[Dm]y with a new[Am]sprint f[Em]rame
[C]My night i[D]s colored h[G]eadache-grey
[C]Daysleeper[Dm], daysleeper[Am] [Em]
[C]daysleeper[D] [G]
The bull and the bear are marking their territories
They're leading the blind with their international glories
I('m the) screen, the blinding light
I('m the) screen, I work at night
I see today with a newsprint frame
My night is colored headache-grey
Don't wake me
(You're) so much
Daysleeper
2x Dsus4
BRIDGE:
[C]I cried[Cmaj7] the other [C]night
[C]I can't[Cmaj7] even say w[C]hy
[C]floures[Cmaj7]cent, flat,[C] caffeine lights
[C]It's fu[Cmaj7]rious balan[C]cing
I('m the) screen, the blinding light
I('m the) screen, I work at night
I see today with a newsprint frame
My night is colored headache grey
Don't wake me (you're) so much
The ocean machine is set to night
I'll squeeze into heaven and Valentine
My bed is pulling me, gravity, daysleeper
Daysleeper, daysleeper, daysleeper, daysleeper
End on C
[-----]      Daysleeper by R.E.M
From Anders Kjeldsen 29.10.98 (AndersK@gangstah.net)
[Bb]         [113331]       [Bbmaj7]         [113231]       [F]         [133211]       [G]C        [355411]032010
D 000232
Am 002210
E 022100
e-|---3---3---3------------------3----------------------------------
B-|---1---1------0-h-1r--0------------------------------------------
G-|---0---0------------------0--------------------------------------
D-|---2---2---------------------------------------------------------
A-|---3---3---------------------------------------------------------
E-|---0---0---------------------------------------------------------

(or Cmaj7)
Receiving dept., 3 a.m.
Staff cuts have sucked up the overage
directives are posted.
no callbacks, complaints.
everywhere is calm.
[Bb]Hong Kong is present
[Bbmaj7]Taipei awakes
[F]all talk of circadian [G]rhythm
[C]I see [D]today with a [Am]newsprint [E]fray
[C]my night is [D]colored [G]headache grey
[C]daysleeper[D] [Am] [E]
[C]daysleeper [D] [G]
[C]daysleeper
(or Cmaj7)
the bull and the bear are marking
their territories.
they're leading the blind with
their international glories.
[Bb]I'm the screen, [Bbmaj7]the blinding light
[F]I'm the screen, [G]I work at night
[C]I see [D]today with a [Am]newsprint [E]fray
[C]my night is [D]colored [G]headache grey
[C]don't [D]wake me [Am]with so [E]much
[C]daysleeper.
[C]I cried the other night
I can't even say why
fluorescent flat caffeine lights
it's furious balancing
[Bb]I'm the screen, [Bbmaj7]the blinding light
[F]I'm the screen, [G]I work at night
[C]I see [D]today with a [Am]newsprint [E]fray
[C]my night is [D]colored [G]headache grey
[C]don't [D]wake me [Am]with [E]so m[C]uch.[D] the[G]
[C]ocean [D]machine [Am]is set to [E]9
[C]I'll squeeze into [D]heaven and [G]valentine
[C]my bed is [D]pulling [Am]me,
[E]gravity
[C]daysleeper. [D] [Am] [E]
[C]daysleeper. [D] [G]
[C]daysleeper. [D] [Am] [E]
[C]daysleeper. [D] [G]
[C]daysleeper. [D] [Am] [E]
end with a C
[----]     From: Geoff Batchelor (geoff_batchelor@hotmail.com)
{---------------0----!------------------!
|-----------8------8-|------------8-----|
|--------9-----------|--0---------------|
|----10--------------|-------9----------|
|--------------------|------------------|
[--------------------@------------------@


Important: The song above is NOT stored on the Chordie server. The original song is hosted at www.xguitar.com. Chordie works as a search engine and provides on-the-fly formatting. Chordie does not index songs against artists'/composers' will. To remove this song please click here.

Text color:
Chord color:
Chord grids: 
Font size:    
Page size: 

Am Bb Bbmaj7 C Cmaj7 D D# Dm E Em F G
variations - click chord images

Login - add to songbook

Transpose chords

Tuning

Rating click stars to rate

Layout
Accuracy

SHARE PAGE  




You need to log in to post comments