Guitar Tabs, Chords and Lyrics


Lotus  R.E.M

e|---------------------------------------------------


B|-------------1-0-----------------------------------


G|-----0h2p0--0----0h2p0-----------------------------


D|----------h4----------0-h2-0-0---------------------


A|0------------------------------3-3-2-2-0--------0--


E|-----------------------------------------3^(1/2)---


e|---------------------------------------------------


B|--------1-0-1-3-1-3-3s5-3-3-1-1-0-0----------------


G|0h2p0-------------------------------2-2-0----------


D|-----h4--------------------------------------------


A|------------------------------------------0--------


E|---------------------------------------------------


e|5-5----3-3-----10-10-----8-8-----------------------


B|5-5----3-3-----10-10-----8-8-----------------------


------

I was hell[Am], sarcastic[C] silver swell, th[G]at day it rained[F]
Tough spun, har[Am]d won,  No, [C]ocean flower aqu[G]arium[F]
Badland[Am]s, give a hand, hon[C]ey dipt, [G]film flam[F]
Hey hey,[Am] hey hey, th[C]at cat can walk[G] like a big bad man,[F]
[Dm]So happy to show u[Am]s, I ate[Dm] the lotus,[Am]
[Dm]Say haven't you noticed?[Am] I ate t[Em]he lotus[Dm]
[Am]Storefront window, I reflect,[C] just last week [G]I was merely heck[F]
T[Am]ip the scale, I wa[C]s hell, Picked me [G]up, then I fell,[F]
W[Am]ho'sthis stranger? Crowbar[C] spine, dot, dot, dot and [G]I feel fine,   [F]
Let it rai[Am]n, rain, rain, B[C]ring m[G]y happy back again,[F]
[Dm]So happy to show u[Am]s, I ate[Dm] the lotus,[Am]
[Dm]Say haven't you noticed?[Am] I ate t[Em]he lotus   I [Dm]ate th[Em]e lotus[Dm]
| Am | C | G | F | | Am | C | G | F |
Let it rain[Am], rain, rain[C], Save[G] me from myself again[F]
[Am]Wash away my ugly sins, [C]Opposing thumb, do[G]rsal fin[F]
That monke[Am]y died for my gri[C]n, Bring my happy bac[G]k again          [F]
L[Am]et it rain, rain, rai[C]n, Bri[G]ng my happy back again[F]
[Dm]So happy to show u[Am]s, I ate[Dm] the lotus,[Am]
[Dm]Say haven't you noticed?[Am] I ate t[Em]he lotus   I [Dm]ate th[Em]e lotus[Dm]
[Em]I ate the lotu[Dm]s, I[Em] ate the lotus[Dm], I [Em]ate the lot[Dm]us
Lyrics:
hey hey.
I was hell
sarcastic silver swell.
that day it rained
tough spun. hard won. no
ocean flower aquarium
badlands. give a hand.
honey dipt. film flam
hey hey. hey hey.
that cat can walk like a big bad man.
so happy to show us
I ate the lotus.
say haven't yoou noticed?
I ate the lotus
storefront window, I reflect.
just last week I merely heck
tip the scale. I was hell
picked me up, then I fell.
who's this stranger? crowbar spine
...and I feel fine.
let it rain, rain, rain
bring my happy back again.
so happy to show us
I ate the lotus.
say haven't yoou noticed?
I ate the lotus
let it rain, rain, rain
save me from myself again
wash away my ugly sins
opposing thumb, dorsal fin
that monkey died for my grin
bring my happy back again
let it rain, rain, rain
bring my happy back again
so happy to show us
I ate the lotus.
say haven't yoou noticed?
I ate the lotus
I ate the lotus
I ate the lotus

Important: The song above is NOT stored on the Chordie server. The original song is hosted at www.xguitar.com. Chordie works as a search engine and provides on-the-fly formatting. Chordie does not index songs against artists'/composers' will. To remove this song please click here.

Text color:
Chord color:
Chord grids: 
Font size:    
Page size: 

Am C Dm Em F G
variations - click chord images

Login - add to songbook

Transpose chords

Tuning

Rating click stars to rate

Layout
Accuracy

Jango Player

SHARE PAGE  




You need to log in to post comments