Guitar Tabs, Chords and Lyrics


Suspicion  R.E.M

[G]now m[Bb]y suspi[G]cions [Bb]on the r[G]ise[Bb] [G] [Bb]
[G]I hav[Bb]e known[G], I ha[Bb]ve known[G] you[Bb]r ki[G]nd.[Bb]
[G]please don't t[Bb]alk, don't ma[G]ke me [Bb]think    o[Bb]rder[G] up[Bb] another drink
[G]let m[Bb]e let i[G]magina[Bb]tion dri[G]ve[Bb] [G]
pre-chorus:
[F]cant you see I need [Dm]nothing t[G]oo deep
chorus:
[Am]imagin[D]ation  [Am]come aliv[D]e
[Am]suspi[D]cion, t[C]onight, I'll [D]dream tonight
verse:
listen to the devils in my ear.
tell me what, what I want to hear
youre so funny, youre so fine.
youre so perfect, youre so mine.
that i never had an opportunity to hide
no I never had a chance
pre-chorus:
cant you see I need nothing too deep
chorus:
imagination come alive
suspicion, tonight, I'll dream tonight.
bridge:
[Bb]    [Am]          look into my [G]eyes.
[Gm]hypnotize the lig[Am]hts, the drinks
[F]let the music carry you a[G]way
solo:
verse:
my eyes are blurred, my sights are limited
am i sensing a familiar twinge?
no I never had a chance
pre-chorus:
please don't speak, make me think, it's all too deep
chorus:
imagination come alive
suspicion, step down, I'll dream tonight.
step down, I'll dream tonight.
youre so naked baby, dream, dream, carry you away
-------

CORRECTION
From: david wagner (wagner@mindspring.com)
here's what you've got:
[F]can't you see i n[Dm]eed nothing [G]too deep
(or something like that)
here's what i think it is:
F (xxx565) Faug5 (xxx665) Dm/F (xxx765) G (open)
can't you see i need nothing too deep
(Faug5:133221 or XXX665)
[-----]      Here's the guitar solo from Suspicion... it's pretty heavily modulated
so expect me to be off on a few counts.
Tabbed by Chris Lawrence (mustang@islandnet.com)
E----------------------------------------------------------
B----------------------------------------------------------
G----------------------------------------------------------
D-----------------------------12/10\12---10\12-10--10/5-5--
A--------------3\8-8---\10-8-------------------------------
E--3----6\8-6----------------------------------------------
E---------------------------------------------------
B-------------------------------------------------8-
G----------------------------------------10-9---7-7-
D-----------------------------12/10\12--------------
A--------------3\8-8---\10-8------------------------
E--3----6\8-6---------------------------------------

Use slides and vibrato at your own discretion.
[----]From: Ross Pickford (rosspic@hotmail.com)
Updated chords for Suspicion using basics from DJ Allen, with a slight
variation on his use of G and Bb. I've tried G (320033) and
G/Bb (x10033) and found it a nice option. You decide.
Also added extra chords at the end of the chorus, which also form the
repeat at the end of the song.
I've only added the effected parts of the song here. Repeat througout as
needed.
Pre-chorus chords:
F : (xxx565)
Faug5: (xxx665)
Dm/F " (xxx765)
Suspicion
verse:
[G]now [G/Bb]my suspi[G]cions [G/Bb]on the [G]rise[G/Bb] [G] [G/Bb]
[G]I have[G/Bb] known, [G]I have[G/Bb] known your[G] kind[G/Bb] [G] [G/Bb]
[G]please don't[G/Bb] talk, don't [G]make me [G/Bb]think   [G] orde[G/Bb]r up an[G]other d[G/Bb]rink
G G/Bb G G/Bb G G/Bb (G G/Bb)?
let me let imagination drive
pre-chorus:
F Faug5 Dm/F G
can't you see I need nothing too deep
chorus:
[Am]imagi[D]nation  [Am]come a[D]live
[Am]suspi[D]cion, to[C]night[Bm], I'[G]ll [D]dream tonight
Bridge:
[Bb]     [Am]      [C]look into my [G]eyes
[Bb]hypnotize the [Am]lights, the drinks
[F]let the music carry you a[G]way
for end chorus, use C Bm G D progression.
[----]From: Jamie <66789044@mmu.ac.uk>
F F(?) Bmaj7 G
can't you see I need nothing too deep.
e-1--------------1------------1--------------3-----
b-1--------------2------------3--------------3-----
g-2--------------2------------2--------------0-----
d-3--------------3------------3--------------0------
a-----------------------------------------------------
e------------------------------------------------------

bridge
[Bb]   [Am]   [C]   [G]   [Bb]   [Am]   [F]  [Bb]     [Am]      [C]       Look into my e[G]yes. they hypnot[Bb]ise.
the li[Am]ghts, the drinks. let the[F] music carry you away.
[----]From: JamieWire@postmaster.co.uk
Suspicion: verse (according to Peter buck himself)
G Gm throughout
Chorus: Am C D/F#m a few times, then C C/B D
[F]can't you see     I[F#m(maj7)/Eb] need             [Bmaj7]nothing [G]too deep.
e-1--------------1-----------------1---------3---
b-1--------------2-----------------3---------3---
g-2--------------2-----------------2---------0---
d-3--------------3-----------------3---------0---a-------------------------
-----------------------e------------------------------------------------

bridgeBb Am C G Bb Am F
[Bb]     [Am]      [C]       Look into my e[G]yes. they hypnot[Bb]ise.
the li[Am]ghts, the drinks. let the[F] music carry you away.

Important: The song above is NOT stored on the Chordie server. The original song is hosted at www.xguitar.com. Chordie works as a search engine and provides on-the-fly formatting. Chordie does not index songs against artists'/composers' will. To remove this song please click here.

Text color:
Chord color:
Chord grids: 
Font size:    
Page size: 

Am Bb Bm Bmaj7 C D Dm F G Gm
variations - click chord images

Login - add to songbook

Transpose chords

Tuning

Rating click stars to rate

Layout
Accuracy

SHARE PAGE  




You need to log in to post comments