Guitar Tabs, Chords and Lyrics


Unborn    Reveille







Author/Artist: Reveille
Title: Unborn
Transcribed by: Jason Johnson
Email: jgeckoking@hotmail.com

Tuning (Db,Ab,Db,Gb,Bb,Eb)

   = harmonic
p.m. = palm mute
h    = hammer on
p    = pull off
\\    = slide



intro guitar 1:     intro guitar 2:   guitar 1 intro 2:
---------------|----------------------|---------------|-----------------------
---------------|-15-------------------|---------------|-----------------------
---------------|----15-14-------------|---------------|-----------------------
-0--0--0--0--0-|----------15-14-13----|---------------|-7\\1-------------------
-0--0--0--0--0-|----------------------|--5------------|-7\\1-------------------
-0--0--0--0--0-|----------------------|-----7-6-3-4-0-|-7\\1-------------------



guiar 1 does this, the other one mutes:
------------------------------------------------------------------------------
------------------------------------------------------------------------------
------------------------------------------------------------------------------
-0-0--0-0--0---0-0--0-0--0--0-0--0-0--0-1h2p1-3-------------------------------
-0-0--0-0--0---0-0--0-0--0--0-0--0-0--0-1h2p1-3-------------------------------
-0-0--0-0--0---0-0--0-0--0--0-0--0-0--0-1h2p1-3-------------------------------


------------------------------------------------------------------------------
------------------------------------------------------------------------------
------------------------------------------------------------------------------
-0-0--0-0--0---0-0--0-0--0--0-0--0-0--0-1h2p1-4h5p4---------------------------
-0-0--0-0--0---0-0--0-0--0--0-0--0-0--0-1h2p1-4h5p4---------------------------
-0-0--0-0--0---0-0--0-0--0--0-0--0-0--0-1h2p1-4h5p4---------------------------


both guitars:
----------------|-------------------------------------------------------------
----------------|-------------------------------------------------------------
-7--------------|-------------------------------------------------------------
-7--7-6--3-4-0--|-2-3-0-------------------------------------------------------
-5--7-6--3-4-0--|-2-3-0-------------------------------------------------------
----7-6--3-4-0--|-2-3-0-------------------------------------------------------


1:20
------------------------------------------------------------------------------
------------------------------------------------------------------------------
------------------------------------------------------------------------------
------------------------------------------------------------------------------
------------------------------------------------------------------------------
--7-7-7--5-5-5--3-3-3--2------------------------------------------------------


back to thius:
------------------------------------------------------------------------------
------------------------------------------------------------------------------
------------------------------------------------------------------------------
-0-0--0-0--0---0-0--0-0--0--0-0--0-0--0-1h2p1-3-------------------------------
-0-0--0-0--0---0-0--0-0--0--0-0--0-0--0-1h2p1-3-------------------------------
-0-0--0-0--0---0-0--0-0--0--0-0--0-0--0-1h2p1-3-------------------------------


------------------------------------------------------------------------------
------------------------------------------------------------------------------
------------------------------------------------------------------------------
-0-0--0-0--0---0-0--0-0--0--0-0--0-0--0-1h2p1-4h5p4---------------------------
-0-0--0-0--0---0-0--0-0--0--0-0--0-0--0-1h2p1-4h5p4---------------------------
-0-0--0-0--0---0-0--0-0--0--0-0--0-0--0-1h2p1-4h5p4---------------------------


both guitars:
----------------|-------------------------------------------------------------
----------------|-------------------------------------------------------------
-7--------------|-------------------------------------------------------------
-7--7-6--3-4-0--|-2-3-0-------------------------------------------------------
-5--7-6--3-4-0--|-2-3-0-------------------------------------------------------
----7-6--3-4-0--|-2-3-0-------------------------------------------------------



2:08             guitar 1:               guitar 2:
---------------------------------------|--------------------------------------
---------------------------------------|--------------------------------------
---------------------------------------|--------------------------------------
------------------------|--------------------------------------
------------------------|--------------------------------------
---------------|-0--0-0-0---0-0-0-0-0-----------------


then:  guitar 1:           guitar 2:
-------------------------|----------------------------------------------------
-------------------------|----------------------------------------------------
-------------------------|----------------------------------------------------
-------------------------|----------------------------------------------------
-------------------------|---------------------------------
-0--0-0-0---0-0-0-0-0-0--|---------------------------------------------------


chorus:
----------------|-------------------------------------------------------------
----------------|-------------------------------------------------------------
-7--------------|-------------------------------------------------------------
-7--7-6--3-4-0--|-2-3-0-------------------------------------------------------
-5--7-6--3-4-0--|-2-3-0-------------------------------------------------------
----7-6--3-4-0--|-2-3-0-------------------------------------------------------



2:42
------------------------------------------------------------------------------
------------------------------------------------------------------------------
------------------------------------------------------------------------------
-2-3-0--0h4h5p4h5p4-----------------------------------------------------------
-2-3-0--0h4h5p4h5p4-----------------------------------------------------------
-2-3-0--0h4h5p4h5p4-----------------------------------------------------------


3:00
------------------------------------------------------------------------------
------------------------------------------------------------------------------
------------------------------------------------------------------------------
------------------------------------------------------------------------------
-6p5h6p5-5-5--5-5-5-----------------------------------------------------------
---------0-0--0-0-0-----------------------------------------------------------



3:27
------------------------------------------------------------------------------
------------------------------------------------------------------------------
------------------------------------------------------------------------------
-1p0--1p0--1p0--0-------------------------------------------------------------
-1p0--1p0--1p0--0-------------------------------------------------------------
-1p0--1p0--1p0--0-------------------------------------------------------------



chorus:
----------------|-------------------------------------------------------------
----------------|-------------------------------------------------------------
-7--------------|-------------------------------------------------------------
-7--7-6--3-4-0--|-2-3-0-------------------------------------------------------
-5--7-6--3-4-0--|-2-3-0-------------------------------------------------------
----7-6--3-4-0--|-2-3-0-------------------------------------------------------



------------------------------------------------------------------------------
------------------------------------------------------------------------------
------------------------------------------------------------------------------
-2-3-0--0h4h5p4h5p4-----------------------------------------------------------
-2-3-0--0h4h5p4h5p4-----------------------------------------------------------
-2-3-0--0h4h5p4h5p4-----------------------------------------------------------




Important: The song above is NOT stored on the Chordie server. The original song is hosted at www.xguitar.com. Chordie works as a search engine and provides on-the-fly formatting. Chordie does not index songs against artists'/composers' will. To remove this song please click here.

This song is displayed as text-only. Transposing and tuning is only available for chordpro-songs.

Login - add to songbook

Rating click stars to rate

Layout
Accuracy

SHARE PAGE  




You need to log in to post comments