Guitar Tabs, Chords and Lyrics


1000 Good Intentions    Rise Against



Verses
e|---------------------------------------------------------------------------|
B|---------------------------------------------------------------------------|
G|---99-99-99-99-99-99---99/77---99-99-99-99---99/1111-----------------------|
D|---99-99-99-99-99-99---xx/xx---99-99-99-99---xx/-x-x-----------------------|
A|---77-77-77-77-77-77---77/55---77-77-77-77---77/-9-9-----------------------|
E|---00----00----00--------------00----00------------------------------------|
pm pm pm pm pm

e|---------------------------------------------------------------------------|
B|---------------------------------------------------------------------------|
G|99-99-99-99-99-99--99/77/-1111111111111111/77777777------------------------|
D|99-99-99-99-99-99--xx/xx/--x-x-x-x-x-x-x-x/xxxxxxxx------------------------|
A|77-77-77-77-77-77--77/55/--9-9-9-9-9-9-9-9/55555555------------------------|
E|00----00----00-------------------------------------------------------------|
pm pm pm

Chorus
e|---------------------------------------------------------------------------|
B|---------------------------------------------------------------------------|
G|---------------------------------------------------------------------------|
D|-6-----4-----7----------6-----4-----9--7--------6----4----7---------------|
A|-6-x8--4-x8--7-x16------6-x8--4-x8--9--7-x6-----6-x8-4-x8-7-x16-----------|
E|-4-----2-----5----------4-----2-----7--5--------4----2----5---------------|

e|---------------------------------------------------------------------------|
B|---------------------------------------------------------------------------|
G|-11-9-7-99999999/8---------------------------------------------------------|
D|--x-x-x-xxxxxxxx/x---------------------------------------------------------|
A|--9-7-5-77777777/6---------------------------------------------------------|
E|---------------------------------------------------------------------------|

Bridge
e|---------------------------------------------------------------------------|
B|---------------------------------------------------------------------------|
G|/9----9-9-99-9xxxx-16161616-13131313-12-10-13131313-16161616-17171717-16-13|
D|/x------------xxxx--x-x-x-x--x-x-x-x--x--x--x-x-x-x--x-x-x-x--x-x-x-x--x--x|
A|/7------------xxxx-14141414-11111111-10--8-13131313-14141414-15151515-14-11|
E|--------------xxxx---------------------------------------------------------|
hold....

Post-Bridge
e|---------------------------------------------------------------------------|
B|---------------------------------------------------------------------------|
G|----------------------77777777/-16-----------------------------------------|
D|------------xxxxxxxx--xxxxxxxx/--x-----------------------------------------|
A|---99999999-99999999--99999999/-14-----------------------------------------|
E|---------------------------------------------------------------------------|
pm::::::::::::::::::::::::...

Order:
verse x2
Chorus
verse x2
Chorus
Bridge x3 (minus the initial octave hold after the first time)
Post-Bridge


Important: The song above is NOT stored on the Chordie server. The original song is hosted at www.xguitar.com. Chordie works as a search engine and provides on-the-fly formatting. Chordie does not index songs against artists'/composers' will. To remove this song please click here.

This song is displayed as text-only. Transposing and tuning is only available for chordpro-songs.

Login - add to songbook

Rating click stars to rate

Layout
Accuracy

SHARE PAGE  




You need to log in to post comments