Panahon na Naman

Rivermaya

e-3-3-3---0-0-0---0-0-0-3-0----0-0-0----0-0-0---2-3-2-0-----0-0---

B-3-3-3---1-1-1---3-3-3-3-3----1-3-1----0-0-0---3-3-3-3-----1-1---
G-0-0-0---0-0-0---0-0-0-0-0----0-0-0----0-0-0---2-2-2-2-----0-0---
D-0-0-0---2-2-2---0-0-0-0-0----2-2-2----2-2-2---0-0-0-0-----2-2---
A-2-------3-------2------------3-3-3----2-------------------3-3---
E-3---------------3---------------------0-------------------------
 GCG9GG9C-C9-CEmD-Dsus-D-D9C
Bass line:

A-3-2-0-------------------
E------3------------------


or

G-C-G-C-Em-D-C  (/C,/B,/A,/G)


(do intro chords)
May, may naririnig akong bagong awitin,
Bagong awitin
At may may naririnig akong bagong sigaw,
Eh, ikaw?

Refrain:
 DCG
 Hindi mo ba namamalayan
 DCG
 Wala ka bang nararamdamaAAAAn
 DCEmDC
 Ika ng hangin na humahalik sa atin

Chorus:
 G-D/F#
Panahon na naman
 Em-D
Ng pag-ibig
 C-Eb-F
Panahon na naman
 G
Ahah
 G-D/F#
Panahon na naman
 Em-D
Ng pag-ibig
 C-Eb-F
Gumisng ka,
 G
tara na

Interlude:

e-------------------------------------
B-8h9-9--3h5-3-1h3-1------------------     2X
G--------------------0h2-0------------


(do stanza 1 chords)

masdang maigi ang mga mata ng bawat tao
nakasilip ang isang bagong saya
at pa-ibig na dakilang matagal ng nawala
kumusta na
nariyan ka lang pala

refrain

solo:

e-3--4-4-3-4-6-4-3-8--8-8-8-9-8----------------------------|
B------------------------------9-9-8--6-7-8-7-6------------|
G----------------------------------------------------------|   2x
D----------------------------------------------------------|
A----------------------------------------------------------|
E----------------------------------------------------------|


chorus (Acapella)

Coda:(isabay ung solo)

tara na na nanana (basta maraming tara na)

*hindi masasabing 100% tama ung tab and ung chords pero at least it will give you the
idea kung pano I-play ung song. And tinab ko lang to gamit ang acoustic guitar. Listen
to the song para makuha nyo ung timing specially sa intro. For suggestions, comments or
requests, text 09182470715 or e-mail me at nos_ceijdor@yahoo.com. Thank you and God bless!

                     ---======Rock On======---



C D Em Em-D G G9
variations - click chord images
Transpose chords:
Tuning:
Cool service:
View: Size:
A  A  A
Rating:
Layout:
  • Currently 1/5 Stars.
  • 1
  • 2
  • 3
  • 4
  • 5
 
Accuracy:
  • Currently 2/5 Stars.
  • 1
  • 2
  • 3
  • 4
  • 5
 
click stars to rate
Chordie recommends:
Learn to play this song & others via video guitar lessons at JamPlay.com
Songbook:
Login to add this song to your songbook
Support the artist
Preview/buy this song
MSN Music
Why this non-profit ad?

 
login to add comments/video/corrections