Guitar Tabs, Chords and Lyrics


214   Rivermaya

E|---------8--------10-14---------12-14-12-11------7------(7)--|


B|-------8-------10---------12-12---------------9--9--(9)------|


G|-----9------11------------12---------------------8-----------|

D|--10----------------------9----------------------------------|
A|-------------------------------------------------------------|
E|-------------------------------------------------------------|
                                         [E]  [E]    [B7]    [C]  [D]                                        
E|--12-11-12-9-12----12----12-----------------2-2-------|
B|----------------12----10----9---------------3-3-------|
G|------------------------------11-9-8---9-9--2-2--5-7--|
D|---------------------------------------9-9--4-4--5-7--|
A|---------------------------------------7-7--2-2--3-5--|
E|---------------------------------------0-0--0-0--0-0--|
E|---------------------------------------|
B|---------------------------------------|
G|---------------------------------------|
D|------2---4\6-4-2--2h5--4--4p2---------|
A|----2---2----------------------2--5\7--|
E|--0------------------------------------|
E|-------------------------------------------------------|
B|-------------------------------------------------------|
G|-------------------------------------------------------|
D|------2---4\6-4-2--2h5--4--4p2-----------6\7/6--2\4/2--|
A|----2---2----------------------2--5\7------------------|
E|--0------------------------------------0---------------|

solo:
E|-------------------------------------------|
B|-------------------------------------------|
G|--\7~~--<7^8r7>/<5^6r5>------7---9----7~~--|
D|-------------------------7-9---9---9-------|
A|-------------------------------------------|
E|-------------------------------------------|

. . . . . .
E|----------------------------------12----14----15--14h15-14--12---------------------|
B|----------------------12----15-------12----12-------------------15^16r15--12h15~~--|
G|-------12-12----12-14----14----14--------------------------------------------------|
D|--7\12-------14--------------------------------------------------------------------|
A|-----------------------------------------------------------------------------------|
E|-----------------------------------------------------------------------------------|
E|--15----17bf--17^19r15-17bf--17^19r17--15/--------12-----------------------------------|
B|-----12----------------------------------------------15-12-----------------------------|
G|--------------------------------------------(\12)----------14^15r14--14-12--9----------|
D|---------------------------------------------------------------------------------------|
A|---------------------------------------------------------------------------------------|
E|-------------------------------------------------------------------------------12bf/0--|
E|--\12~~-----12-15-17--15-12--15-12----12----------------------|
B|---------15------------------------15----15-12-15-12----------|
G|-----------------------------------------------------12-14~~--|
D|--------------------------------------------------------------|
A|--------------------------------------------------------------|
E|--------------------------------------------------------------|


(1st stanza)
Am I r[E]eal
do the wo[Bm]rds I speak before you
make you fe[E]el,that the lov[Bm]e
I have for you will see no en[A]ding?
well if you l[Am]ook into my eyes
then you should k[E]now
that there is noth[Bm]ing here to doubt
nothing to fe[E]ar
and you can l[Bm]ay your questions down
cause if you'll [A]hold me
we can fa[Am]de into the night and you'll know

refrain:
[G] the worl[Em]d could d[Bm]ie
and e[C]verything[D] may[G] lie
still y[Em]ou shan't[D] cr[C-D]y
[G] coz tim[Em]e may pa[Bm]ss
but lo[C]nger It'll la[G]st
Em D E-C-D(2x)E-
I'll be by your side

(Do 1st stanza chords)
take my hand
and gently close your eyes
so you could understand
that there's no greater love tonight
that what I've for you
well If you feel the same way for me then let go
we can journey to a garden no one knows
life is short my darlin tell me that you love me
so we can fade into the night and youll know
(repeat chorus)

(Do chorus chords)
the world could die
and everything may lie
but you wont cry
coz time may pass
and everything wont last
I'll be by your side
forever by your side
so you wont cry

any comments email me:ikay07@yahoo.com

Important: The song above is NOT stored on the Chordie server. The original song is hosted at www.xguitar.com. Chordie works as a search engine and provides on-the-fly formatting. Chordie does not index songs against artists/composers will. To remove this song please click here.

Text color:
Chord color:
Chord grids: 
Font size:    
Page size: 

A Am B7 Bm C D E Em G
variations - click chord images

Login - add to songbook

Transpose chords

Tuning

Rating click stars to rate

Layout
Accuracy

SHARE PAGE  




You need to log in to post comments