Elesi

Rivermaya

 GAmEm-D
I pag automatic na ang luha
 GAmEm-D
  tuwing nag-hahating gabi
 GAmEm-D
  pag imposibleng mapatawa
 GAmEm-D
  at di na madapuan ng ngiti
refrain:(guitar I strumming)
 CGAmEm
  kumapit ka kaya, sa akin ng ikaw ay
 CGEmD
  maitangay sa kalayaan ng ligaya
(guitar II-tayo na tayo na ikay magtiwala....)
E|--9-9-9-8-6--8-8-8-6-4--9-9-9-8-6--8-8-8-6-4--|
B|--9-9-9-8-6--8-8-8-6-4--9-9-9-8-6--8-8-8-6-4--|
G|----------------------------------------------|
D|----------------------------------------------|
A|----------------------------------------------|
E|----------------------------------------------|

 CG-AmEm
 tayo na tayo na ikaw ay magtiwala
 GAmEm
 sapagkat ngayong gabi ako ang mahiwagang
G-Am-Em-D(2x)
elesi

stanzaII(do stanza chords)
pag kumplikadong may problema
parang relong made in japan
at para rin sandwich na nasa lunch box mo
nawawala, nabubulok na sa isipan
(repeat refrain)

solo:(with flanger)
E|----------------------------------------------
B|----------------------------------------------
G|----------------------------------------------
D|----------------------------------------------
A|--2h3-3-3-2-0--0-0h2-2-2-0-----2h3-3-3-3-2-0--
E|---------------------------3-3----------------
E|----------------------------------------------
B|----------------------------------------------
G|----------------------------------------------
D|----------0-----------------------------------
A|--0-2-2-2-------2h3-3-3-3-2-0-0-2-2-2-0-------
E|------------3-3-------------------------3-3---
E|----------------------------------------------
B|----------------------------------------------
G|----------------------------------------------
D|----------------------------------------------
A|------2h5-3-2h3p2p0-----3-3/10~~~v-press pedal pitch
E|--0-3---------------3-0-----------------------


IIIstanza
minsan ako'y nangailangan
daglian kang lumapit sa akin
Ibinulong mo kaibigan
ako ang iyong liwanag sa dilim
(repeat chorus)

I hope this is correct!!!sana?!

 End
 tabbed by:leander_85@yahoo.com


Am C D Em Em-D G
variations - click chord images
Transpose chords:
Tuning:
Cool service:
View: Size:
A  A  A
Rating:
Layout:
  • Currently 2.8/5 Stars.
  • 1
  • 2
  • 3
  • 4
  • 5
 
Accuracy:
  • Currently 3.3/5 Stars.
  • 1
  • 2
  • 3
  • 4
  • 5
 
click stars to rate
Chordie recommends:
Get acoustic guitar lessons and electric guitar lessons at JamPlay.com
Songbook:
Login to add this song to your songbook
Support the artist
Preview/buy this song
MSN Music
Why this non-profit ad?

 
login to add comments/video/corrections