Chordie logo

Bad to the Bone      Running Wild



Bad to the Bone by Running Wild

Tabbed by: Max Olsson

Contact: ol_friman@hotmail.com

/: slide up
\: slide down
u: bend up
r: release bend
h: hammer on
p: pull off
*: repeat

Intro riff
E|---------------------------------------------------------------------------
B|---------------------------------------------------------------------------
G|---------------------------------------------------------------------------
D|----------------------2----------------------------------------------------
A|-4p2------4-2-4-4-2h4--4-2-4-----------------------------------------------
E|----5-2-2------------------------------------------------------------------

E|---------------------------------------------------------------------------
B|---------------------------------------------------------------------------
G|---------------------------------------------------------------------------
D|---------------2-------------------2---------------------------------------
A|----4-2-4-4-2h4-4-2-4---4-2-4^--2h4-4-2-4----4-2-0-0-0-2-0-----------------


Important: The song above is NOT stored on the Chordie server. The original song is hosted at www.xguitar.com. Chordie works as a search engine and provides on-the-fly formatting. Chordie does not index songs against artists/composers will. To remove this song please click here.

This song is displayed as text-only. Transposing and tuning is only available for chordpro-songs.

Rating click stars to rate

Layout
Accuracy

SHARE PAGE  



You need to log in to post comments