"yes"; ?> Raise Your Fist by Running Wild - guitar chords, guitar tabs and lyrics - chordie

Raise Your Fist

Running Wild

 --------------------------------------------------------------------------------


 1234123412341234
                                                          Pm          
 |-----------------|-----------------|-----------------|-----------------|
 |-----------------|-----------------|-----------------|-----------------|
 |-----------------|-----------------|-----------------|-----------------|
 |-4-----2-----4---|-----7-------2---|-4-----2-----4---|-----------------|
 |-2-----0-----2---|-----5-------0---|-2-----0-----2---|---5-5---7---7---|
 |-----------------|-----------------|-----------------|---3-3---5---5---|


 1234123412341234
 |-----------------|-----------------|-----------------|-----------------|
 |-----------------|-----------------|-----------------|-----------------|
 |-----------------|-----------------|---------------2-|----------H-P----|
 |-4-----2-----4---|-----7-------2-5-|---------------2-|---------2-4-2---|
 |-2-----0-----2---|-----5-------0-5-|---------------0-|---------------5-|
 |-----------------|---------------3-|-----------------|-----------------|


Fig.1
 B
 |                 |                 |                 |                 |
Friday night, dressed to kill, hell bent for the show

 EDB
 |                 |                 |                 |                 |
Shiny leather like a second skin, ready for the first row

 BDAB
 |                 |                 |                 |                 |
You want to go to meet your pals but your dad won't let you go

He's totally blind, babbling wild, and he rages and he blows

"I don't want you boy to leave my house this way!"

"Your awful friends are gonna lead you astray!"

"You better work for school, don't join this fuckin show

I won't let you go!"










A B D E
variations - click chord images
Transpose chords:
Tuning:
Cool service:
View: Size:
A  A  A
Rating:
Layout:
  • Currently 3.3/5 Stars.
  • 1
  • 2
  • 3
  • 4
  • 5
 
Accuracy:
  • Currently 2.8/5 Stars.
  • 1
  • 2
  • 3
  • 4
  • 5
 
click stars to rate
Chordie recommends:
Check out JamPlay.com for online video guitar lessons
Songbook:
Login to add this song to your songbook
Support the artist
Preview/buy this song
MSN Music
Why this non-profit ad?

 
login to add comments/video/corrections