Chordie logo


Face Up    Rush



Rush: Face Up
From the album Roll the Bones (Atlantic Records)
Copyright 1991 Core Music Publishing
Music by Lee and Lifeson
Lyrics by Peart

Arranged by Matt Mitchell, edited by John Lagerquist

   q=152

let ring --------------------------------------------
    e  e  e  e  e  e  e  e     e  e  e  e  e  e  e  e
----------------------------|--------------------------|
----------------------------|--------------------------|
4:--------2--------2--------|--2--------2--------2-----|
4:-----2--------2--------2--|--------2--------2--------|
----0--------0--------0-----|-----0--------0--------0--|
----------------------------|--------------------------|

let ring ----------------------------------------
e  e  e  e  e  e  e  e     e  e  e  e  e  e  e  e
------------------------|--------------------------|
------------------------|--------------------------|
------2--------2--------|--2--------2--------2-----|
---2--------2--------2--|--------2--------2--------|
3--------3--------3-----|-----3--------3--------3--|
------------------------|--------------------------|


let ring -----------------------------------------
e  e  e  e  e  e  e  e     e  e  e  e  e  e  e  e
------------------------|--------------------------|
------------------------|--------------------------|
------2--------2--------|--2--------2--------2-----|
---2--------2--------2--|--------2--------2--------|
0--------0--------0-----|-----0--------0--------0--|
------------------------|--------------------------|


let ring -----------------------------------------
e  e  e  e  e  e  e  e     e  e  e  e  e  e  e  e
------------------------|--------------------------|
------------------------|--------------------------|
------2--------2--------|--2--------2--------2-----|
---2--------2--------2--|--------2--------2--------|
3--------3--------3-----|-----3--------3--------3--|
------------------------|--------------------------|


let ring -----------------------------------------
e  e  e  e  e  e  e  e     e  e  e  e  e  e  e  e
------------------------|--------------------------|
------------------------|--------------------------|
------2--------2--------|--2--------2--------2-----|
---2--------2--------2--|--------2--------2--------|
0--------0--------0-----|-----0--------0--------0--|
------------------------|--------------------------|


let ring -----------------------------------------
e  e  e  e  e  e  e  e     e  e  e  e  e  e  e  e
------------------------|--------------------------|
------------------------|--------------------------|
------2--------2--------|--2--------2--------2-----|
---2--------2--------2--|--------2--------2--------|
3--------3--------3-----|-----3--------3--------3--|
------------------------|--------------------------|


let ring -----------------------------------------
e  e  e  e  e  e  e  e     e  e  e  e  e  e  e  e
------------------------|--------------------------|
------------------------|--------------------------|
------2--------2--------|--2--------2--------2-----|
---2--------2--------2--|--------2--------2--------|
0--------0--------0-----|-----0--------0--------0--|
------------------------|--------------------------|


let ring -----------------------------------------   verse 1:
e  e  e  e  e  e  e  e     e  e  e  e  e  e  e  e      q  h  e  e
------------------------|--------------------------||--r-----------|
------------------------|--------------------------||--e--2--------|
------2--------2--------|--2--------2--------2-----||--s--2--------|
---2--------2--------2--|--------2--------2--------||--t--2--------|
3--------3--------3-----|-----3--------3--------3--||-----0--0--0--|
------------------------|--------------------------||--------------|

                       let ring--
q   q  e  e  e     w     Q  q  q  e     q  h  e  e
----------------|-----|--------------|--------------|
----------------|--4--|-----8--7-----|--------------|
----------------|--4--|--7--------0--|--2--2--------|
----2--2-----2--|--4--|--7--------0--|--2--2--------|
----0--0-----0--|--2--|--5-----------|--0--0--0--0--|
3^--------3-----|-----|--------------|--------------|


q   q  e  e  e     e  e  e  e  e  e  e  e
----------------|--------------------------|
----------------|--4--4--4--4--4--4--4-----|
----------------|--4--4--4--4--4--4--4-----|
----2--2-----2--|--4--4--4--4--4--4--4-----|
----0--0-----0--|--2--2--2--2--2--2--2--0--|
3^--------3-----|--------------------------|

                       let ring ----------------
e  e  e  e  e  e  q      e  e  e  e  e  e  e  e
---------------------||--------------------------|
---------------------||--------------------------|
---------------------||--------2--------2--------|
------0--------0-----||-----2--------2--------2--|
---2--------0--------||--0--------0--------0-----|
3--------2--------0--||--------------------------|

pre-chorus:
let ring ----------------------------------------
e  e  e  e  e  e  e  e     e  e  e  e  e  e  e  e
------------------------|--------------------------|
------------------------|--------------------------|
2--------2--------2-----|--------2--------2--------|
------2--------2--------|-----2--------2--------2--|
---0--------0--------0--|--3--------3--------3-----|
------------------------|--------------------------|


let ring ----------------------------------------
e  e  e  e  e  e  e  e     e  e  e  e  e  e  e  e
------------------------|--------------------------|
------------------------|--------------------------|
2--------2--------2-----|--------2--------2--------|
------2--------2--------|-----2--------2--------2--|
---3--------3--------3--|--0--------0--------0-----|
------------------------|--------------------------|


let ring ----------------------------------------
e  e  e  e  e  e  e  e     e  e  e  e  e  e  e  e     e  e  q  h
------------------------|--------------------------|-----r--r--r--||
------------------------|--------------------------|-----e--e--e--||
2--------2--------2-----|--------2--------2--------|-----s--s--s--||
------2--------2--------|-----2--------2--------2--|-----t--t--t--||
---0--------0--------0--|--3--------3--------3-----|--3-----------||
------------------------|--------------------------|--------------||

chorus:
      pm                               pm
q  q  e  e  e  e     Q  Q  q     q  q  e  e  e  e     Q  Q  q
r-----------r-----|-----------|--r-----------r-----|-----------|
e-----------e-----|-----------|--e-----------e-----|-----------|
s--4-----4--s--4--|--2--4--2--|--s--4-----4--s--4--|--2--4--2--|
t--4-----4--t--4--|--4--4--4--|--t--4-----4--t--4--|--4--4--4--|
------2-----------|-----------|--------2-----------|-----------|
------------------|-----------|--------------------|-----------|

                                       pm
q  e  q  e  e  e     Q  Q  q     q  q  e  e  e  e     Q  Q  q
r-----------r-----|-----------|--r-----------r-----|-----------|
e-----------e-----|-----------|--e-----------e-----|-----------|
s--4--4--4--s--4--|--2--4--2--|--s--4-----4--s--4--|--2--4--2--|
t--4--2--4--t--4--|--4--4--4--|--t--4-----4--t--4--|--4--4--4--|
------------------|-----------|--------2-----------|-----------|
------------------|-----------|--------------------|-----------|


q  e  q  e  e  e     Q  Q  q     q  e  q  e  e  e
r-----------r-----|-----------|--r-----------------|
e-----------e-----|-----------|--e-----------------|
s--4--4--4--s--4--|--2--4--2--|--s--4--4--4--------|
t--4--2--4--t--4--|--4--4--4--|--t--4--2--4--------|
------------------|-----------|--------------2--2--|
------------------|-----------|--------------------|

let ring ----------    verse 2:
e  e  e  e  e  e  q      q  h  e  e     q   q  e  e  e     w
---------------------||--r-----------|------------------|-----|
---------------------||--e--2--------|------------------|--4--|
---------------------||--s--2--------|------------------|--4--|
------0--------0-----||--t--2--------|------2--2-----2--|--4--|
---2--------0--------||-----0--0--0--|------0--0-----0--|--2--|
3--------2--------0--||--------------|--3^--------3-----|-----|

let ring-
Q  q  q  e     q  h  e  e     q   q  e  e  e
------------|--------------|------------------|
---8--7-----|--------------|------------------|
7--------0--|--2--2--------|------------------|
7--------0--|--2--2--------|------2--2-----2--|
5-----------|--0--0--0--0--|------0--0-----0--|
------------|--------------|--3^--------3-----|

                         let ring ------------
e  e  e  e  e  e  e  e     e  e  e  e  e  e  q
------------------------|-----------------------||
4--4--4--4--4--4--4-----|-----------------------||
4--4--4--4--4--4--4-----|-----------------------||
4--4--4--4--4--4--4-----|--------0--------0-----||
2--2--2--2--2--2--2--0--|-----2--------0--------||
------------------------|--3--------2--------0--||

pre-chorus:
let ring -----------------------------------------
e  e  e  e  e  e  e  e     e  e  e  e  e  e  e  e
------------------------|--------------------------|
------------------------|--------------------------|
------2--------2--------|--2--------2--------2-----|
---2--------2--------2--|--------2--------2--------|
0--------0--------0-----|-----0--------0--------0--|
------------------------|--------------------------|


let ring -----------------------------------------
e  e  e  e  e  e  e  e     e  e  e  e  e  e  e  e
------------------------|--------------------------|
------------------------|--------------------------|
------2--------2--------|--2--------2--------2-----|
---2--------2--------2--|--------2--------2--------|
3--------3--------3-----|-----3--------3--------3--|
------------------------|--------------------------|


let ring -----------------------------------------
e  e  e  e  e  e  e  e     e  e  e  e  e  e  e  e
------------------------|--------------------------|
------------------------|--------------------------|
------2--------2--------|--2--------2--------2-----|
---2--------2--------2--|--------2--------2--------|
0--------0--------0-----|-----0--------0--------0--|
------------------------|--------------------------|

                                         chorus:
let ring ---------------                         pm
e  e  e  e  e  e  e  e     e  e  q  h      q  q  e  e  e  e
------------------------|-----r--r--r--||--r-----------r-----|
------------------------|-----e--e--e--||--e-----------e-----|
------2--------2--------|-----s--s--s--||--s--4-----4--s--4--|
---2--------2--------2--|-----t--t--t--||--t--4-----4--t--4--|
3--------3--------3-----|--3-----------||--------2-----------|
------------------------|--------------||--------------------|

                  pm
Q  Q  q     q  q  e  e  e  e     Q  Q  q     q  e  q  e  e  e
---------|--r-----------r-----|-----------|--r-----------r-----|
---------|--e-----------e-----|-----------|--e-----------e-----|
2--4--2--|--s--4-----4--s--4--|--2--4--2--|--s--4--4--4--s--4--|
4--4--4--|--t--4-----4--t--4--|--4--4--4--|--t--4--2--4--t--4--|
---------|--------2-----------|-----------|--------------------|
---------|--------------------|-----------|--------------------|

                  pm
Q  Q  q     q  q  e  e  e  e     Q  Q  q     q  e  q  e  e  e
---------|--r-----------r-----|-----------|--r-----------r-----|
---------|--e-----------e-----|-----------|--e-----------e-----|
2--4--2--|--s--4-----4--s--4--|--2--4--2--|--s--4--4--4--s--4--|
4--4--4--|--t--4-----4--t--4--|--4--4--4--|--t--4--2--4--t--4--|
---------|--------2-----------|-----------|--------------------|
---------|--------------------|-----------|--------------------|

                                                           bridge:
                               let ring----------------    half time feel
Q  Q  q     q  e  q  e  e  e     e  e  e  e  e  e  e  e      w
---------|--r-----------------|--------------------------||------------|
---------|--e-----------------|--------------------------||------------|
2--4--2--|--s--4--4--4--------|--------------------------||--4---------|
4--4--4--|--t--4--2--4--------|--------0--------0--------||--4---------|
---------|--------------2--2--|-----2--------0--------0--||--2---------|
---------|--------------------|--3--------2--------0-----||------------|

        pm------------------------------------------------
  w     e  e  e  e  e  e  e  e     e  e  e  e  e  e  e  e
--r--|--------------r-----r-----|--r-----------------------|
--e--|--------------e-----e-----|--e-----------------------|
--s--|--------------s-----s-----|--s-----------------------|
--t--|--------------t-----t-----|--t-----------------------|
-----|--2--2--2--2-----2-----2--|-----2--2--2--2--2--2--2--|
-----|--------------------------|--------------------------|

pm--------------------------------------------
q  e  e  e  e  e  e     e  e  e  e  e  e  e  e
---r-----r-----r-----|--r-----------------------|
---e-----e-----e-----|--e-----------------------|
---s-----s-----s-----|--s-----------------------|
---t-----t-----t-----|--t-----------------------|
2-----2-----2-----2--|-----2--2--2--2--2--2--2--|
---------------------|--------------------------|

pm-----------------------------------------------
e  e  e  e  e  e  e  e     e  e  e  e  e  e  e  e
------------r-----r-----|--------------------------|
------------e-----e-----|--------------------------|
------------s-----s-----|--------------------------|
------------t-----t-----|--------------------------|
2--2--2--2-----2-----2--|--2--2--2--2--2--2--2--2--|
------------------------|--------------------------|
                        | natural harmonic         |
                        | w/delay           \/ -1/2|
           guitar 2:    |--------------------------|
                        |--------------------------|
                        |--------------------------|
                        |--------------------------|
                        |--12---------------(12)---|
                        |--------------------------|


  pm-----------------------------------------------
  e  e  e  e  e  e  e  e     e  e  e  e  e  e  e  e
--------------r-----r-----|--r-----------------------|
--------------e-----e-----|--e-----------------------|
--------------s-----s-----|--s-----------------------|
--------------t-----t-----|--t-----------------------|
--2--2--2--2-----2-----2--|-----2--2--2--2--2--2--2--|
--------------------------|--------------------------|
                          |                          |
\/-1/2 \/-1/2             |                          |
--------------------------|--------------------------|
--------------------------|--------------------------|
--------------------------|--------------------------|
--------------------------|--------------------------|
(12)--(12)----------------|--------------------------|
--------------------------|--------------------------|


pm-----------------------------------------------
e  e  e  e  e  e  e  e     e  e  e  e  e  e  e  e
------------r-----r-----|--r-----r-----------------|
------------e-----e-----|--e-----e-----------------|
------------s-----s-----|--s-----s-----------------|
------------t-----t-----|--t-----t-----------------|
2--2--2--2-----2-----2--|-----2-----2--2--2--2--2--|
------------------------|--------------------------|
                        |                          |
                        | natural harmonic         |
------------------------|--------------------------|
------------------------|--------------------------|
------------------------|--7--------------(7)~~~~~-|
------------------------|--7--------------(7)~~~~~-|
------------------------|--------------------------|
------------------------|--------------------------|


pm----------------------------------------------
e  e  e  e  e  e  e  e   e  e  e  e  e  e  e  e
------------r-----r-----|r-----------------------|
------------e-----e-----|e-----------------------|
------------s-----s-----|s-----------------------|
------------t-----t-----|t-----------------------|
2--2--2--2-----2-----2--|---2--2--2--2--2--2--0--|
------------------------|------------------------|
                        |                        |
                        |                        |
------------------------|------------------------|
------------------------|------------------------|
~~~~~~~~~~~~~~~~~~~~~~~~|~~~~~~~~~~~~~~~~~~~~~~~~|
~~~~~~~~~~~~~~~~~~~~~~~~|~~~~~~~~~~~~~~~~~~~~~~~~|
------------------------|------------------------|
------------------------|------------------------|

pm ----------------------- pm------------------------------------------
  e  e  e  e  e  e  e  e   e  e  e  e  e  Q     e  e  e  e  e  e  e  e
-----r--r-----r-----r-----|r-----------------|-----r--r--------r--------|
-----e--e-----e-----e-----|e-----------------|-----e--e--------e--------|
-----s--s-----s-----s-----|s-----------------|-----s--s--------s--------|
-----t--t-----t-----t-----|t-----------------|-----t--t--------t--------|
--------------------------|---------------0--|--2--------2--2-----2--2--|
--3--------3-----3-----3--|---3--3--3--3-----|--------------------------|
          natural         |                  |
          harmonic        | dive -1 1/2      |
--------------------------|------------------|
--------------------------|------------------|  end of guitar 2
-------------5------------|-----(5)\---------|
--------------------------|----------\-------|
--------------------------|------------\-----|
--------------------------|------------------|


pm-----------------------------------------------
e  e  e  e  e  e  e  e     e  e  e  e  e  e  e  e
r-----------------------|-----r--r-----------------|
e-----------------------|-----e--e-----------------|
s-----------------------|-----s--s-----------------|
t-----------------------|-----t--t-----------------|
---2--2--2--5--5--5--0--|--------------------------|
------------------------|--3--------3--3--3--3--3--|


pm---------------------------------------------
e  e  e  e  e  e  e  e     q  e  e  e  e  e  e
r-----------------------|-----r-----r-----r-----|
e-----------------------|-----e-----e-----e-----|
s-----------------------|-----s-----s-----s-----|
t-----------------------|-----t-----t-----t-----|
------------------------|--2-----2-----2-----2--|
---3--3--3--0--0--0--0--|-----------------------|


pm---------------------------------------------
e  e  e  e  e  e  e  e     q  e  e  e  e  e  e
r-----------------------|-----r-----r-----r-----|
e-----------------------|-----e-----e-----e-----|
s-----------------------|-----s-----s-----s-----|
t-----------------------|-----t-----t-----t-----|
---2--2--2--5--5--5--0--|-----------------------|
------------------------|--3-----3-----3-----3--|

pm--------------------    solo:
e  e  e  e  e  e  e  e      h  e  e   e   e
r-----------------------||-----r--9---9---9---|
e-----------------------||-----e--10--10--10--|
s-----------------------||--2--s--9---9---9---|
t-----------------------||--2--t--------------|
------------0--0--0--0--||--0-----------------|
---3--3--3--------------||--------------------|

                              dive -1/2 3 times    dive A -3 1/2
e   e   e   e   q    e    e     w   \/ \/  \/      h     e  e  e  e
10--9---9---9---9---(9 )--r--|--8---------------|--------r--r--r--s----|
10--10--10--10--10--(10)\-e--|--8---------------|----\---e--e--e--20^--|
9---9---9---9---9---(9 )--s--|------------------|------\-s--s--s-------|
--------------------------t--|--10--------------|--------t--t--t-------|
-----------------------------|--10--------------|--0-------\-----------|
-----------------------------|--8---------------|------------\---------|


e  e^ e^   e^   e^   e^ s^ s^  e^  e^
r--r--s----s----s----r--s--s---s---s---|
e--e--20^--20^--20^--e--17p15--17--15--|
s--s-----------------s-----------------|
t--t-----------------t-----------------|
---------------------------------------|
---------------------------------------|


s^ s^  e^  e^  s^ s^ s^  s   s   q      s  s  s  s
-----------s---s--s--s-------s----------r--17h20p17--|
s--s---s---15--17h20p17--s---17--s------e------------|
17p14--17----------------19------19~~~--s------------|
----------------------------------------t------------|
-----------------------------------------------------|
-----------------------------------------------------|


e^  s^ s^ s^  s^  s   s  s  s   s   s  s   s  s   s   s  s
----17h20p17------17------------17---------------------------|
19------------19------20p17h20------20p17--------------------|
-------------------------------------------19p17------17h19--|
--------------------------------------------------19---------|
-------------------------------------------------------------|
-------------------------------------------------------------|
   natural harmonic
   wide fast vib.            pm
s  s      h  e  q      q  q  e  e  e  e     Q  Q  q
r---------r--r--r--||--r-----------r-----|-----------|
e---------e--e--e--||--e-----------e-----|-----------|
s--19~~~--s--s--s--||--s--4-----4--s--4--|--2--4--2--|
t---------t--t--t--||--t--4-----4--t--4--|--4--4--4--|
-------------------||--------2-----------|-----------|
-------------------||--------------------|-----------|

      pm
q  q  e  e  e  e     Q  Q  q     q  e  q  e  e  e     Q  Q  q
r-----------r-----|-----------|--r-----------r-----|-----------|
e-----------e-----|-----------|--e-----------e-----|-----------|
s--4-----4--s--4--|--2--4--2--|--s--4--4--4--s--4--|--2--4--2--|
t--4-----4--t--4--|--4--4--4--|--t--4--2--4--t--4--|--4--4--4--|
------2-----------|-----------|--------------------|-----------|
------------------|-----------|--------------------|-----------|

      pm
q  q  e  e  e  e     Q  Q  q     q  e  q  e  e  e     Q  Q  q
r-----------r-----|-----------|--r-----------r-----|-----------|
e-----------e-----|-----------|--e-----------e-----|-----------|
s--4-----4--s--4--|--2--4--2--|--s--4--4--4--s--4--|--2--4--2--|
t--4-----4--t--4--|--4--4--4--|--t--4--2--4--t--4--|--4--4--4--|
------2-----------|-----------|--------------------|-----------|
------------------|-----------|--------------------|-----------|

                           pm
q  e  q  e  e  e     q  q  e  e  e  e     Q  Q  q
r-----------------|--r-----------r-----|-----------|
e-----------------|--e-----------e-----|-----------|
s--4--4--4--------|--s--4-----4--s--4--|--2--4--2--|
t--4--2--4--------|--t--4-----4--t--4--|--4--4--4--|
------------2--2--|--------2-----------|-----------|
------------------|--------------------|-----------|

      pm
q  q  e  e  e  e     Q  Q  q     q  e  q  e  e  e     Q  Q  q
r-----------r-----|-----------|--r-----------r-----|-----------|
e-----------e-----|-----------|--e-----------e-----|-----------|
s--4-----4--s--4--|--2--4--2--|--s--4--4--4--s--4--|--2--4--2--|
t--4-----4--t--4--|--4--4--4--|--t--4--2--4--t--4--|--4--4--4--|
------2-----------|-----------|--------------------|-----------|
------------------|-----------|--------------------|-----------|

      pm
q  q  e  e  e  e     Q  Q  q     q  e  q  e  e  e     Q  Q  q
r-----------r-----|-----------|--r-----------r-----|-----------|
e-----------e-----|-----------|--e-----------e-----|-----------|
s--4-----4--s--4--|--2--4--2--|--s--4--4--4--s--4--|--2--4--2--|
t--4-----4--t--4--|--4--4--4--|--t--4--2--4--t--4--|--4--4--4--|
------2-----------|-----------|--------------------|-----------|
------------------|-----------|--------------------|-----------|

                    let ring ------------
q  e  q  e  e  e     e  e  e  e  e  e  q
r-----------------|-----------------------||
e-----------------|-----------------------||
s--4--4--4--------|-----------------------||
t--4--2--4--------|--------0--------0-----||
------------2--2--|-----2--------0--------||
------------------|--3--------2--------0--||

let ring-----------------------------------------
e  e  e  e  e  e  e  e     e  e  e  e  e  e  e  e
------------------------|--------------------------|
------------------------|--------------------------|
------2--------2--------|--2--------2--------2-----|
---2--------2--------2--|--------2--------2--------|
0--------0--------0-----|-----0--------0--------0--|
------------------------|--------------------------|


let ring-----------------------------------------
e  e  e  e  e  e  e  e     e  e  e  e  e  e  e  e
------------------------|--------------------------|
------------------------|--------------------------|
------2--------2--------|--2--------2--------2-----|
---2--------2--------2--|--------2--------2--------|
3--------3--------3-----|-----3--------3--------3--|
------------------------|--------------------------|


let ring-----------------------------------------
e  e  e  e  e  e  e  e     e  e  e  e  e  e  e  e
------------------------|--------------------------|
------------------------|--------------------------|
------2--------2--------|--2--------2--------2-----|
---2--------2--------2--|--------2--------2--------|
0--------0--------0-----|-----0--------0--------0--|
------------------------|--------------------------|


let ring-----------------------------------------
e  e  e  e  e  e  e  e     e  e  e  e  e  e  e  e
------------------------|--------------------------|
------------------------|--------------------------|
------2--------2--------|--2--------2--------2-----|
---2--------2--------2--|--------2--------2--------|
3--------3--------3-----|-----3--------3--------3--|
------------------------|--------------------------|


let ring-----------------------------------------
e  e  e  e  e  e  e  e     e  e  e  e  e  e  e  e
------------------------|--------------------------|
------------------------|--------------------------|
------2--------2--------|--2--------2--------2-----|
---2--------2--------2--|--------2--------2--------|
0--------0--------0-----|-----0--------0--------0--|
------------------------|--------------------------|


let ring-----------------------------------------
e  e  e  e  e  e  e  e     e  e  e  e  e  e  e  e
------------------------|--------------------------|
------------------------|--------------------------|
------2--------2--------|--2--------2--------2-----|
---2--------2--------2--|--------2--------2--------|
3--------3--------3-----|-----3--------3--------3--|
------------------------|--------------------------|


let ring-----------------------------------------
e  e  e  e  e  e  e  e     e  e  e  e  e  e  e  e
------------------------|--------------------------|
------------------------|--------------------------|
------2--------2--------|--2--------2--------2-----|
---2--------2--------2--|--------2--------2--------|
0--------0--------0-----|-----0--------0--------0--|
------------------------|--------------------------|


let ring---------------------------------------
e  e  e  e  e  e  e  e     e  e  e  e  e  e  e     e  e  q  h
------------------------|-----------------------|-----r--r--r--||
------------------------|-----------------------|-----e--e--e--||
------2--------2--------|--2--------2--------2--|-----s--s--s--||
---2--------2--------2--|--------2--------2-----|-----t--t--t--||
3--------3--------3-----|-----3--------3--------|--0-----------||
------------------------|-----------------------|--------------||




========================================================================
==                       TABLATURE EXPLANATION                        ==
========================================================================

----------                ----------                ----t---
----5h8--- Hammeron       ----(8)--- Ghost          ----6--- Tap
----------                ---------- Note           --------
----5p8--- Pulloff        ----------                --------

----------                ----------                -----p--
----5/8--- Slide Up       -----x---- Dead           -----7-- Pop
----------                ---------- Note           --s-----
----5\8--- Slide Down     ----------                --5----- Slap

----------                ||------|| Repeat         --------
----5~~~-- Vibrato        ||*----*||                ---5^--- Bend
----------                ||*----*||                --------
----------                ||------||                --------

----------                ----------                --------
-4:------- Time           ----------                --------
-4:------- Signature      ----------                --------
----------                ----------                --------

Rhythm:
  w = whole note            W = dotted whole
  h = half note             H = dotted half
  q = quarter note          Q = dotted quarter
  e = eighth note           E = dotted eighth
  s = sixteenth note        S = dotted sixteenth
  t = 32nd note             T = dotted 32nd
  x = 64th note             X = dotted 64th
  ^ = triplet

========================================================================
==               Created with BUCKET O' TAB for Windows               ==
==                  For more info email gse@his.com                   ==


Important: The song above is NOT stored on the Chordie server. The original song is hosted at www.xguitar.com. Chordie works as a search engine and provides on-the-fly formatting. Chordie does not index songs against artists/composers will. To remove this song please click here.

This song is displayed as text-only. Transposing and tuning is only available for chordpro-songs.

Login - add to songbook

Rating click stars to rate

Layout
Accuracy

SHARE PAGE  




You need to log in to post comments