Chordie logo


Always    Saliva



Corrected by: coz187
email: coz200059@hotmail.com
Artist: Saliva
Song: Always

100%  PLEASE RATE

Tuning C#G#C#F#A#D

Guitar 1                        w/bar - vol. swell
D#|----------------------------------------------|
A#|------------------------------5\\--------------|
F#|------------------------------4---------------|

Guitar 2
D#|----------------------------------------------------------------------------|
A#|----------------------------------------------------------------------------|
F#|----------------------------------------------------------------------------|
C#|----2---------7--------7----------7---------2--------7-------7--------7-----|
G#|---2--2-----5---5----0---------7----7\\----2---2----5--5----0---0----7---7\\--|
C#|-2-------/5--------0-----0--/7----------2-------/5-------0--------7---------|

let ring
D#|-3----------------2-----2-----2------3---3---3---3------5-----5-----7-----7----||
A#|-3-------------------5-----5-----5---3-5---5---5---5-------5-----5-----5-----5-||
F#|-0-----------------------------------0-----------------------------------------||
C#|-------------------------------------------------------------------------------||
G#|-------------------------------------------------------------------------------||
C#|-------------------------------------------------------------------------------|

Pre-Chorus:
D#|-------------------------------------------------------------------------------||
A#|-------------------------------------------------------------------------------||
F#|-------------------------------------------------------------------------------||
C#|-10-10-10-10-10-10---9-9-9-9-9-9-9-9---7-7-7-7-7-7-7-7---10-10-10~---12-12-12~-||
G#|-10-10-10-10-10-10---9-9-9-9-9-9-9-9---7-7-7-7-7-7-7-7---10-10-10~---12-12-12~-||
C#|-10-10-10-10-10-10---9-9-9-9-9-9-9-9---7-7-7-7-7-7-7-7---10-10-10~---12-12-12~-||

 palm muted------------------------------------------]    distorted---

Chorus:
D#|---------------------------------------------------------------------------------|
A#|---------------------------------------------------------------------------------|
F#|---------------------------------------------------------------------------------|
C#|-2-2--xx--x5-5--xx-x-0-0--xx--x7-7--xx-x-2-2--xx--x5-5--xx-x-0-0--xx--x7-7--xxxx-|
G#|-2-2--xx--x5-5--xx-x-0-0--xx--x7-7--xx-x-2-2--xx--x5-5--xx-x-0-0--xx--x7-7--xxxx-|
C#|-2-2--xx--x5-5--xx-x-0-0--xx--x7-7--xx-x-2-2--xx--x5-5--xx-x-0-0--xx--x7-7--xxxx-|

Chorus(continued)
D#|--------------------------------------------------------------------|
A#|--------------------------------------------------------------------|
F#|--------------------------------------------------------------------|
C#|-2-2-2-2-5-5-5-5--0-0-0-0-7-7-7-7--2-2-2-2-5-5-5-5--0-0-0-0-7-7-7-7-|
G#|-2-2-2-2-5-5-5-5--0-0-0-0-7-7-7-7--2-2-2-2-5-5-5-5--0-0-0-0-7-7-7-7-|
C#|-2-2-2-2-5-5-5-5--0-0-0-0-7-7-7-7--2-2-2-2-5-5-5-5--0-0-0-0-7-7-7-7-|


Interlude: Guitar 1 - w/ gate threshold
D#|-0-2-3--0-2-0--0-2-0--3-2-0-|-0-2-3--0-2-0--0-2-0--3-2-0-|
A#|----------------------------|----------------------------|
F#|----------------------------|----------------------------|

Guitar 2
D#|------------------------------------------------------------------------|
A#|------------------------------------------------------------------------|
F#|------------------------------------------------------------------------|
C#|-----2-------7-------7--------7---------2---------7---------7-------7---|
G#|---2---2---5--5----0--0-----7--7------2---2-----5---5-----0--0----7---7-|
C#|-2------/5-------0-------/7---------2--------/5---------0------/7-------|
  palm muted--------------------------------------------------------------


Fill 1: Clean
D#|---2-----2-----2-----2-3-|
A#|-----5-----5-----5-------|
F#|-0-----0-----0-----0-----|
C#|-------------------------|
G#|-------------------------|
C#|-------------------------|

Bridge: Guitar 1
D#|------------------------------------------------------------------------|
A#|------------------------------------------------------------------------|
F#|------------------------------------------------------------------------|
C#|--4--(4)^4-5--7--4--(4)^4--2--0-----------------------------------------|
G#|-----------------------------------2------------------------------------|
C#|------------------------------------------------------------------------|

Bridge: Guitar 2
D#|------------------------------------------------------------------------|
A#|------------------------------------------------------------------------|
F#|------------------------------------------------------------------------|
C#|-0H2-22--0H2-22--3--0H2-22--0H2-22--3---7-7-7-7-7-7-7-7-5-5-5-5-5-5-5-5-|
G#|-0H2-22--0H2-22--3--0H2-22--0H2-22--3---7-7-7-7-7-7-7-7-5-5-5-5-5-5-5-5-|
C#|-0H2-22--0H2-22--3--0H2-22--0H2-22--3---7-7-7-7-7-7-7-7-5-5-5-5-5-5-5-5-|

Guitar 1: continued
D#|--------------------------------------|
A#|--------------------------------------|
F#|-8b--8b--8b-(8)-------7-5-7^5---------|
C#|------------------------------7-------|
G#|--------------------------------------|
C#|--------------------------------------|

Guitar 2: continued
D#|--------------------------------------|
A#|--------------------------------------|
F#|--------------------------------------|
C#|-0H2-22--0H2-22--3--0H2-22--0H2-22--3-|
G#|-0H2-22--0H2-22--3--0H2-22--0H2-22--3-|
C#|-0H2-22--0H2-22--3--0H2-22--0H2-22--3-|

Interlude 2:
D#|------------------------------------------|
A#|------------------------------------------|
F#|------------------------------------------|
C#|-7-7-7-7-7-7-7-7--10-10-10-10-12-12-12-12-|
G#|-7-7-7-7-7-7-7-7--10-10-10-10-12-12-12-12-|
C#|-7-7-7-7-7-7-7-7--10-10-10-10-12-12-12-12-|

Final Chorus: Slower strums
D#|--------------------------------------------------------------------|
A#|--------------------------------------------------------------------|
F#|--------------------------------------------------------------------|
C#|-2---2---5---5----0---0---7---7----2---2---5---5----0---0---7---7---|
G#|-2---2---5---5----0---0---7---7----2---2---5---5----0---0---7---7---|
C#|-2---2---5---5----0---0---7---7----2---2---5---5----0---0---7---7---|

D#|--------------------------------------------------------------------|
A#|--------------------------------------------------------------------|
F#|--------------------------------------------------------------------|
C#|-2---2---5---5----0---0---7---7----2---2---5---5----0---0---7---7---|
G#|-2---2---5---5----0---0---7---7----2---2---5---5----0---0---7---7---|
C#|-2---2---5---5----0---0---7---7----2---2---5---5----0---0---7---7---|

Outro:
D#|-------------------------------------------------------------|
A#|-------------------------------------------------------------|
F#|-------------------------------------------------------------|
C#|-2-2--xx--x5-5--xx-x-0-0-------7----------(7)----------(7)---|
G#|-2-2--xx--x5-5--xx-x-0-0-------7----------(7)----------(7)---|
C#|-2-2--xx--x5-5--xx-x-0-0-------7----------(7)----------(7)---|

Here's my version, Aber's was good, but didnt sound right to me,


Important: The song above is NOT stored on the Chordie server. The original song is hosted at www.xguitar.com. Chordie works as a search engine and provides on-the-fly formatting. Chordie does not index songs against artists/composers will. To remove this song please click here.

This song is displayed as text-only. Transposing and tuning is only available for chordpro-songs.

Login - add to songbook

Rating click stars to rate

Layout
Accuracy

SHARE PAGE  




You need to log in to post comments