Chordie logo

Your Disease    Saliva



Saliva - Your Disease
Tune down a half step + Drop D
Low to High - Db Ab Db Gb Bb Eb

Riff I: (slowly bend the 6 to 7)
|---------------------------------------------------------------------|
|---------------------------------------------------------------------|
|----6-6-6-6-6-6-6-6^7-7-7-7-7-7--------------------------------------|
|----0-0-0-0-0-0-0-0---0-0-0-0-0--------------------------------------|
|---------------------------------------------------------------------|
|---------------------------------------------------------------------|

Riff II: (Huuuuh!!!)
         (the riff actually starts mid-riff, at the bend part)
|---------------------------------------------------------------------|
|------------------------3--------------------------------------------|
|------------------------2--------------------------------------------|
|--0--3--5-5^-5-3-5p3-0--0--------------------------------------------|
|--0--3--5-5^-5-3-5p3-0--0--------------------------------------------|
|--0--3--5-5^-5-3-5p3-0--0--------------------------------------------|

Riff III:
|---------------------------------------------------------------------|
|---------------------------------------------------------------------|
|---------------------------------------------------------------------|
|--0---3-0-3-5--6--6-6-6-6-5-5^---------------------------------------|
|--0---3-0-3-5--6--6-6-6-6-5-5^---------------------------------------|
|--0---3-0-3-5--6--6-6-6-6-5-5^---------------------------------------|

Chorus:
|---------------------------------------------------------------------|
|---------------------------------------------------------------------|
|---7------5------3------5--------------------------------------------|
|---7------5------3------5--------------------------------------------|
|---5------3------1------3----3-5p3-5p3-3-----------------------------|
|---0-----------------------------------------------------------------|

Bridge/Interlude: (slide the octave shape around)
|---------------------------------------------------------------------|
|---------------------------------------------------------------------|
|---7--/---11---\----9----/----11-------------------------------------|
|---x------x---------x---------x--------------------------------------|
|---5--/---9----\----7----/----9--------------------------------------|
|---------------------------------------------------------------------|

tabbed by zipztabs.com


Important: The song above is NOT stored on the Chordie server. The original song is hosted at www.xguitar.com. Chordie works as a search engine and provides on-the-fly formatting. Chordie does not index songs against artists/composers will. To remove this song please click here.

This song is displayed as text-only. Transposing and tuning is only available for chordpro-songs.

Login - add to songbook

Rating click stars to rate

Layout
Accuracy

SHARE PAGE  



You need to log in to post comments