"yes"; ?> Soul Sacrifice by Santana - guitar chords, guitar tabs and lyrics - chordie

Soul Sacrifice

Santana


Author/Artist: Santana Title: Soul Sacrifice Album: Best of Santana Transcribed by: jordanlockert@yahoo.com
Tablature Explanation: h=hammer-on p=pull-off /=slide up \=slide down b=bend half ^=bend full br, ^r=bend & release
CD times are at the bottom of each line.
Intro: |----------------5------------5-------------|---5--555------------|-------------------------------| |----------------5------------5-------------|---5--555--7--5------|-5-------5--5--7-------5--5--5-| |-5------------0-5----------0-5--------5----|---5--555--7--5--5\--|-5-------5--5--7-------5--5--5-| |-7------------------------------------7----|---7--777--7--5--7\--|-7-------7--7--7-------5--5--7-| |-------------------------------------------|-----------------7\--|-7-------7--7----------------7-| |-0-17---------0-21---------0-24-------0-28-|--0-31---------------|-(0-39)------------------------|
|---------7--------------------------------------------------------------| |-5-5-8p5-7----------5-5-----------------5-5-8p5-7-----------5-5---------| |------------------------5----5----------------------------------5----5--| |---------------------------7---------------------------------------7----| |------------------------------------------------------------------------| |-0-45-------------------------------------------------------------------|
|---8--8-8-8p5-------8-8-5-----------------8--8-8--8-5------------5--5h8p5-| |-5--------------------------------------5--------------------5h8----------| |--------------------------7^r-5-------------------------------------------| |--------------------------------------------------------------------------| |--------------------------------------------------------------------------| |-0-52---------------------------------------------------------------------|
|-8--12--8-----------5h8--5-----------10h12---10h12-----------------5h8p5-| |------------------5-----------------x-------x-------13---------5h8-------| |-------------------------------------------------------------------------| |-------------------------------------------------------------------------| |------------------------------------arp----------------------------------| |-0-59--------------------------------------------------------------------|
|-12--15--12----------5---5h8p5---------------------| |-----------------5h8--(8)-------------5-5-8p5-7----| |---------------------------------------------------| |---------------------------------------------------| |---------------------------------------------------| |-1-06----------------------------------------------|
|-----------------------------------------------12-12h17--| |---------------10-12-12-12-13-13h15--15-15/17------------| |--------9h11h12------------------------------------------| |-9h10h12-------------------------------------------------| |---------------------------------------------------------| |-1-11----------------------------------------------------|
|-17p12-17p12-17p12-17p12-17p12-17-17-17p12-17p12p-17p12--1717--1717-etc-17\-| |----------------------------------------------------------------------------| |----------------------------------------------------------------------------| |----------------------------------------------------------------------------| |----------------------------------------------------------------------------| |-1-14-----------------------------------------------------------------------|
|-5---5---5---5-5-x-x--5---5---5---7p5\--------| |-5---5---5---5-5-x-x--5---5---5---7p5\--------| |-5---5---5---5-5-x-x--5---5---5---7p5\ -(2)---| |----------------------------------------(2)---| |----------------------------------------(0)---| |-1-24-----------------------------------------|
At 2:38 repeat intro Chords (start at 0:31)
|-5---5---5---5---| |-5---7---5---5---| |-5---7---5---5---| |-----------------| |-----------------| |-2-52------------|
|---------------------------------------------| |-5h8---5-7-----5------------8---5-7-----5----| |-------------7------------------------7------| |---------------------------------------------| |---------------------------------------------| |-2-58----------------------------------------|
|-5h7---5---7p5--------------7---5---7p5------| |---------------8----------5-------------8----| |---------------------------------------------| |---------------------------------------------| |---------------------------------------------|
|-3-06----------------------------------------|
|-----12---10---12p10----------------12---10---12p10-----| |---------------------13-----------------------------13--| |-9-9------------------------------9---------------------| |--------------------------------------------------------| |--------------------------------------------------------| |-3-12---------------------------------------------------|
|-/12--12-17-12-17-12-17-12-17-12-17--14--1717--1717--1717--1717p12-1717p12 -| |----------------------------------------------------------------------------| |----------------------------------------------------------------------------| |----------------------------------------------------------------------------| |----------------------------------------------------------------------------| |-3-19-----------------------------------------------------------------------|
|-17-19-19-17-17-17--15-15--14-14--12-12------------------------| |------------------------------------------15-15--13-13--12-12--| |---------------------------------------------------------------| |---------------------------------------------------------------| |---------------------------------------------------------------| |-3-23----------------------------------------------------------|
|----------------------------------------------------| |-13p12------------13p12------------13p12------------| |-------14p12h14---------14p12h14---------14p12h14---| |----------------------------------------------------| |----------------------------------------------------| |-3-26-----------------------------------------------|
|-7h8p7p5h7---5-------------| |-----------8---8-7-6-5-----| |----------------------7p5--| |---------------------------| |---------------------------| |-3-29----------------------|
|-------------------7-7-8-8-8/10-10/12-12---12-12-12--| |------------7-8-10-----------------------------------| |--------7-9------------------------------------------| |-7-9-10----------------------------------------------| |-----------------------------------------------------| |-3-31------------------------------------------------|
|-12-0-0-12-0-0-12-0-12-12-0-0-0-12-0-0-0-10-0-0-0-8-0-0-0-7-0-0-0--| |-------------------------------------------------------------------| |-------------------------------------------------------------------| |-------------------------------------------------------------------| |-------------------------------------------------------------------| |-3-34---------------play with a slight palm mute-------------------|
|-5--7-------------------|-----5---7-------------------|-------5--7------------------| |-------8p5-7--8--5---5--|---5--------8p5-7--8--5---5--|---5-5-------8p5-7--8--7---7-| |-------------------7----|------------------------7----|-------------------------5 --| |------------------------|-----------------------------|-----------------------------| |------------------------|-----------------------------|-----------------------------| |-3-37-------------------|---3-40----------------------|---3-44----------------------|
Pay with these chords for the next minute or so: |-5---x-x-5---x-x----------| |-5---x-x-4---x-x-5---7-5--| |-5---x-x-5---x-x-5---7-5--| |-----------------7--------| |--------------------------| |-3-48---------------------|
|-----------------------------5-5-7-7-8-8-10-10/12---17p12t17p12t17-etc--| |-----------------------5-7-8------------------------******************--| |(7^r-5--)-------4--5-7--------------------------------------------------| |(------7)----7-------------------------------------*tap real fast with--| |(-------)-------------------------------------------your pick maybe a --| |(quietly)----5-39-----------------------------------dozen times or so.--|
|--------------------------------------| |----5--5--5-5-5-5-5-5-5-5-5-5-5-5-5-5-| |-5--5--5--5-5-5-5-5-5-5-5-5-5-5-5-5-5-| |----------7-7-7-7-7-7-7-7-7-7-7-7-7-7-| |------------7-7-7-7-7-7-7-7-7-7-7-7-7-| |-5-40---------------------------------|
Repeat intro part at 5:48 |------------------------| |-----5---5-7-7---5-7-5--| |-5---5---5-7-7---5-7-5--| |-7---5---5-7-7---5-7-5--| |-7----------------------| |-(6:00)-----------------|
|-5------------| |-5--end with--| |-5------------| |--------------| |--------------|













variations - click chord images
Transpose chords:
Tuning:
Cool service:
View: Size:
A  A  A
Rating:
Layout:
  • Currently 0/5 Stars.
  • 1
  • 2
  • 3
  • 4
  • 5
 
Accuracy:
  • Currently 3.2/5 Stars.
  • 1
  • 2
  • 3
  • 4
  • 5
 
click stars to rate
Chordie recommends:
Learn to play this song & others via video guitar lessons at JamPlay.com
Songbook:
Login to add this song to your songbook
Support the artist
Preview/buy this song
MSN Music
Why this non-profit ad?

 
login to add comments/video/corrections