Guitar Tabs, Chords and Lyrics


Always Ten Feet Tall    Saves The Day



-------------------------------------------------------------------------------
ALWAYS TEN FEET TALL - Saves The Day
-------------------------------------------------------------------------------

Tabbed By: George Zalepa (monstour5@yahoo.com)

N.B.> thanx to sean (allstarme545@aol.com) for the first version of this tab

Note: Drop D Tuning (as most are)
^= full bend (for those note bend the bottom note so it sounds like the top [a whole step]}

intro:
e|-----------------------------------------------0~--|
B|-----------------------------7-----------------5~--| play verse chords PM's in background
G|--9-7-6---6---6h7-6-6--------9^--9-7-6-----6-4-----|
d|--------7---7---------7-7-7------------9-7---------|
A|---------------------------------------------------|
D|---------------------------------------------------|

verse chords:
e|-----------------------------------------------------|
B|-----------------------------------------------------|
G|-----------------------------------------------------| x2
D|--7-7-7-7-7-7-7-7-7-7-7-7-7-7-7-7--4-4-4-4--0-0-0-0--|
A|--7-7-7-7-7-7-7-7-7-7-7-7-7-7-7-7--4-4-4-4--0-0-0-0--|
D|--7-7-7-7-7-7-7-7-7-7-7-7-7-7-7-7--4-4-4-4--0-0-0-0--|
pm............................. ...............

bridge A:
e|----------(5)----------| 

Important: The song above is NOT stored on the Chordie server. The original song is hosted at www.xguitar.com. Chordie works as a search engine and provides on-the-fly formatting. Chordie does not index songs against artists'/composers' will. To remove this song please click here.

This song is displayed as text-only. Transposing and tuning is only available for chordpro-songs.

Login - add to songbook

Rating click stars to rate

Layout
Accuracy

SHARE PAGE  




You need to log in to post comments