Guitar Tabs, Chords and Lyrics


Houses and Billboards    Saves The Day



-------------------------------------------------------------------------------
HOUSES AND BILLBOARDS - Saves The Day
-------------------------------------------------------------------------------


Intro x6
C F8 E7 F E G
E|--------------------------------|
B|--------------------------------|
G|--5-----10----9-----------------|
D|--5-----10----9-----3----2----5-|
A|--3------8----7-----3----2----5-|
E|--------------------1----0----3-|

Remember that last friday.....
E|------------------------------------|
B|------------------------------------|
G|--555555--101010999-----------------|
D|--555555--101010999--333333--222555-|
A|--333333---8-8-8777--333333--222555-|
E|---------------------111111--000333-|

Like billie holliday might sing.... x2
E|-------------------------------|
B|-------------------------------|
G|--555-555-999-109--------------|
D|--555-555-999-109-333333333333-|
A|--333-222-777--87-333333333333-|
E|------------------111111111111-|

E|---------------------------------------------|
B|---------------------------------------------|
G|---------------------------------------5-555-|
D|---7777--2353-555555555555-7777--2353--5-555-|
A|---7777--2333-555555555555-7777--2333--3-333-|
E|---5555--0131-333333333333-5555--0131--------|

And it makes me sad.... x2
E|------------------------------------|
B|------------------------------------|
G|--555555--101010999-----------------|
D|--555555--101010999--333333--222555-|
A|--333333---8-8-8777--333333--222555-|
E|---------------------111111--000333-|

I will sit in my room and sleep all day.....
E|-----------------------------------------------------------|
B|-----------------------------------------------------------|
G|---5-5-555555555555--------------555555555555--------------|
D|---5-5-555555555555-333333333333-555555555555-333333332225-|
A|---3-3-333333333333-333333333333-333333333333-333333332225-|
E|--------------------111111111111--------------111111110003-|

Like I am the cutest kid in school......
E|-------------------|
B|-------------------|
G|---555-------------|
D|---555-555-777-333-|
A|---333-555-777-333-|
E|-------333-555-111-|

I remember when I sat......
E|--------------------|
B|--------------------|
G|---5---------10-----|
D|---5-x14-----10-x14-|
A|---3----------8-----|
E|--------------------|



Important: The song above is NOT stored on the Chordie server. The original song is hosted at www.xguitar.com. Chordie works as a search engine and provides on-the-fly formatting. Chordie does not index songs against artists'/composers' will. To remove this song please click here.

This song is displayed as text-only. Transposing and tuning is only available for chordpro-songs.

Login - add to songbook

Rating click stars to rate

Layout
Accuracy

SHARE PAGE  




You need to log in to post comments