Guitar Tabs, Chords and Lyrics


Obsolete    Saves The Day



Saves The Day
Cant Slow Down
Obsolete

Tabbed by: Lewis Richards (lewis_ricardo@hotmail.com)

Standard e tuning

*= palm mute


Intro
E----------------------------------------------------------------
B----------------------------------------------------------------
G--4--(let ring)----------4-------4------------------------------
D--4----------------------4-------4------------------------------
A--2----------------------2-------2------------------------------
E----------------------------------------------------------------

Verse
E----------------------------------------------------------------
B----------------------------------------------------------------
G--44-8-9-888-888-9999999999999999-44-33-------44-33-------------
D--44-8-9-666-888-9999999999999999-44-33-66-44-44-33-44-22-------
A--22-6-7-----666-7777777777777777-22-11-66-44-22-11-44-22-------
E----------------------------------------44-22-------22-00------- x2

Pre-Chorus
E----------------------------------------------------------------
B----------------------------------------------------------------
G--66-88-99-1111-4444444444444444-888888---6-8-9999999999999999--
D--66-88-99-1111-4444444444444444-888888-6-6-8-9999999999999999--
A--44-66-77--9-9-2222222222222222-666666-6-4-6-7777777777777777--
E----------------------------------------4-----------------------

E----------------------------------------------------------------
B----------------------------------------------------------------
G--66-88-99-1111-4444444444444444-888888---6-8-9---9-------------
D--66-88-99-1111-4444444444444444-888888-6-6-8-9-9-9-------------
A--44-66-77--9-9-2222222222222222-666666-6-4-6-7-9-7-------------
E----------------------------------------4-------7---------------

Chorus
E----------------------------------------------------------------
B----------------------------------------------------------------
G--4444444444444444------------------6666666666666666-----8-9999-
D--4444444444444444-4444444444444444-6666666666666666-666-8-9999-
A--2222222222222222-4444444444444444-4444444444444444-666-6-7777-
E-------------------2222222222222222------------------444--------

E----------------------------------------------------------------
B----------------------------------------------------------------
G--4444444444444444------------------6666666666666666-888-8-9999-
D--4444444444444444-4444444444444444-6666666666666666-666-8-9999-
A--2222222222222222-4444444444444444-4444444444444444-----6-7777-
E-------------------2222222222222222-----------------------------

E-----------------------------------------------------------------
B-----------------------------------------------------------------
G--4444444444444444------------------6666666666666666-8-9999-8888-
D--4444444444444444-4444444444444444-6666666666666666-8-9999-8888-
A--2222222222222222-4444444444444444-4444444444444444-6-7777-6666-
E-------------------2222222222222222------------------------------
               ****             ****

E-----------------------------------------------------------------
B-----------------------------------------------------------------
G--4444444444444444------------------6666666666666666-8-9999-88-4-
D--4444444444444444-4444444444444444-6666666666666666-8-9999-88-4-
A--2222222222222222-4444444444444444-4444444444444444-6-7777-66-2-
E-------------------2222222222222222------------------------------
               ****             ****

Bridge
E----------------------------------------------------------------
B----------------------------------------------------------------
G-4-------------11------------------------9-------------9--------------------
D-4-44444444444-11-1111111111111111111111-9-99999999999-9-99999999999--------
A-2-22222222222--9--9-9-9-9-9-9-9-9-9-9-9-7-77777777777-7-77777777777--------
E----------------------------------------------------------------------------
    ***********    **********************   ***********   ***********

E----------------------------------------------------------------
B----------------------------------------------------------------
G-4--------------------------------------------------------------
D-4-44444444444-4-------------2-------------2--------------------
A-2-22222222222-4-44444444444-2-22222222222-2-22222222222--------
E---------------2-22222222222-0-00000000000-0-00000000000--------
    ***********   ***********   ***********   ***********

Outro
E---------------------------------------------------------------------
B---------------------------------------------------------------------
G--444444444444-111111111111111111111111-9999999999999999-888-66666---
D--444444444444-111111111111111111111111-9999999999999999-888-66666---
A--222222222222--9-9-9-9-9-9-9-9-9-9-9-9-7777777777777777-666-44444---
E---------------------------------------------------------------------

E-----------------------------------------------------------------------
B-----------------------------------------------------------------------
G--444444444444-111111111111111111111111-9999999999999999-888-66666-4-4-
D--444444444444-111111111111111111111111-9999999999999999-888-66666-4-4-
A--222222222222--9-9-9-9-9-9-9-9-9-9-9-9-7777777777777777-666-44444-2-2-


Important: The song above is NOT stored on the Chordie server. The original song is hosted at www.xguitar.com. Chordie works as a search engine and provides on-the-fly formatting. Chordie does not index songs against artists'/composers' will. To remove this song please click here.

This song is displayed as text-only. Transposing and tuning is only available for chordpro-songs.

Login - add to songbook

Rating click stars to rate

Layout
Accuracy

SHARE PAGE  




You need to log in to post comments