Guitar Tabs, Chords and Lyrics


Sometimes, New Jersey    Saves The Day



-------------------------------------------------------------------------------
SOMETIMES, NEW JERSEY - Saves the Day
-------------------------------------------------------------------------------

By:The Boy
I've never seen anyone tab this whole song out so I gave it a try.
It sounds good to me but there are probably some mistakes.

Intro (rhythm tabbed)
e|---------------------------------------------------------------------------|
B|---------------------------------------------------------------------------|
G|---(pm)-------(pm)-------(pm)--------(pm)----------------------------------|
D|--5-5-5---5---5-5-5---5---9-9-9--9---7-7-7---------------------------------|
A|--5-5-5---5---5-5-5---5---9-9-9--9---7-7-7---------------------------------|
E|--3-3-3---3---3-3-3---3---7-7-7--7---5-5-5--5/7/5--------------------------|

e|---------------------------------------------------------------------------|
B|---------------------------------------------------------------------------|
G|---(pm)----------(pm)------(pm)--------(pm)-----------(pm)-----------------|
D|--5-5-5-5---5-5---5-5---5---5-5---5---9-9-9-9---9-9---7-7---7--------------|
A|--5-5-5-5---5-5---5-5---5---5-5---5---9-9-9-9---9-9---7-7---7--------------|
E|--3-3-3-3---3-3---3-3---3---3-3---3---7-7-7-7---7-7---5-5---5--5/7/5-------|

Verse (listen to song for rhythm)
e|-----3---------------------------------------------------------------------|
B|------3--------------------------------------------------------------------|
G|------------------------------------------5-4---5-4---5-4--(pm)------------|
D|--5-------5-4-2---5-4-2---5-4-2---5-4-2---5-4---5-4---5-4---2--------------|
A|--5-------5-4-2---5-4-2---5-4-2---5-4-2---3-2---3-2---3-2---2--------------|
E|--3-------3-2-0---3-2-0---3-2-0---3-2-0---------------------0--------------|

e|---------------------------------------------------------------------------|
B|---------------------------------------------------------------------------|
G|--5-4---5-4---5-4---7-----4---5---------5-4---------5-4---5----------------|
D|--5-4---5-4---5-4---7---5-4-2-5---2-4-5-5-4---2-4-5-5-4-7-5----------------|
A|--3-2---3-2---3-2---5---5-2-2-3---2-4-5-3-2---2-4-5-3-2-7-3----------------|
E|------------------------3---0-----0-2-3-------0-2-3-----5------------------|

e|---------------------------------------------------------------------------|
B|----(pm)---------(pm)------------------------------------------------------|
G|--------5-4---4---4----4-4-------5-4-0-------------------------------------|
D|--2-4-5-5-4---4---4----4-4---2-4-5-4-0-5-5---------------------------------|
A|--2-4-3-3-2---2---2----2-2---2-4-3-2-0-5-5---------------------------------|
E|--0-2-3----------------------0-2-------3-3---------------------------------|



Important: The song above is NOT stored on the Chordie server. The original song is hosted at www.xguitar.com. Chordie works as a search engine and provides on-the-fly formatting. Chordie does not index songs against artists'/composers' will. To remove this song please click here.

This song is displayed as text-only. Transposing and tuning is only available for chordpro-songs.

Login - add to songbook

Rating click stars to rate

Layout
Accuracy

SHARE PAGE  




You need to log in to post comments