Guitar Tabs, Chords and Lyrics


The Choke    Saves The Day



-------------------------------------------------------------------------------
THE CHOKE - Saves The Day
-------------------------------------------------------------------------------

INTRO: 1st part play 4 times
(-palm mute-)
e---------------------------------------------------------------|
b---------------------------------------------------------------|
g---------------------------------------------------------------|
d-----6---6666666666666---------------------------10---11----10-|
a-----4---4444444444444----------------------------8----9-----8-|
e---------------------------------------------------------------|

(play this 2 times) don't leave yet it's to early.......
e----------------------------------------------------------------|
b----------------------------------------------------------------|
g----------------------------------------------------------------|
d----6666-------------------------------------------10----11--10-|
a----4444-------33-------8----6----4444444-----------8-----9---8-|
e---------------11-------6----4----2222222-----------------------|

(play this 2 times) .....but it's in my head and that's where you can't see it....
e-----------------------------------------------------------------------|
b-----------------------------------------------------------------------|
g-----------------------------------------------------------------------|
d---11---10----6666--------11--10----6666----888888888---10----11-11-11-|
a----9---8-----4444---------9---8----4444----666666666---8--------------|
e-----------------------------------------------------------------------|

(play 2 times with palm mute you have to listen to the song to get the
strumming right)
.......and i'm the type to think of all the wrong things to say.........
e----------------------------------------------------------------|
b----------------------------------------------------------------|
g----------------------------------------------------------------|
d----6666-------------------------------------------10----11--10-|
a----4444-------33-------8----6----4444444-----------8-----9---8-|
e---------------11-------6----4----2222222-----------------------|

(palm mute) ......close all my doors only show you the black spots where my eyes once where...
e----------------|
b----------------|
g----------------|
d----------------|
a--8---6---4---4-|
e--6---4---2---2-|

(let ring out) ......I can't say this......
e-------------|
b-------------|
g-------------|
d-------------|
a----8------4-|
e----6------2-|

e------------------------------------|
b------------------------------------|
g------------------------------------|
d--66666-----------------------------|
a--44444---3333----4444--4444--------|
e----------1111----2222--2222--------|

2nd guitar (riff)
e------------------------------------|
b------------------------------------|
g---12-11-11-12-11-11-12-11-11-14-11-|
d------------------------------------|
a------------------------------------|
e------------------------------------|



Important: The song above is NOT stored on the Chordie server. The original song is hosted at www.xguitar.com. Chordie works as a search engine and provides on-the-fly formatting. Chordie does not index songs against artists'/composers' will. To remove this song please click here.

This song is displayed as text-only. Transposing and tuning is only available for chordpro-songs.

Login - add to songbook

Rating click stars to rate

Layout
Accuracy

SHARE PAGE  




You need to log in to post comments