Guitar Tabs, Chords and Lyrics


Driving in the Dark    Saves The Day



Tabbed by Doug

Tune Down half a Step

(intro)
  e---6-------6--------5------6-------
  B-6---6---6---6----6--6---6---6-----
  G5-------5-------5------7-----------
  D0---------------0------5-----------
  A-----------------------------------
  E-----------------------------------

(verse)
1 - "Life leaks from your fingertips...."
2 - "Helicopters line the skies...."
3 - "Sirens sing over...."

  e---6-------6--------5------6-------
  B-6---6---6---6----6--6---6---6-----
  G5-------5-------5------7-----------
  D0---------------0------5-----------
  A-----------------------------------
  E-----------------------------------

1 - "Stuttering...confused"
2 - "Space, hey hey"
3 - "Week to end"

  e----------------------------------
  B-11-------13----------------------
  G-12-------14----------------------
  D-13-------15----------------------
  A-10-------12----------------------
  E----------------------------------
   Gm(aug5)  Am(aug5)


(chorus)
"Ever since I first saw you..." (x2)

  e-------------------------------------------------------------
  B------------------------------333-3333---11--13--(last -11--13-
  G-33--333--322--333-3--33-333-------------12--14-- time)-12--14-
  D-33--333--333--333-3--33-333--333-3333---13--15---------13--15-
  A-11--111--111--111-0--11-111--111-1111---10--12---------10--12-
  E----------------------33-333--333-3333-------------------------



Interlude (just pick these chords)

   Bflat  Gm(aug5)  Eflat  Am(aug5)



"Ever since i first saw you" (pick chords)

   Bflat  G  Eflat F  Am(aug5)

   Bflat  Bflat/A   Bflat/G  Bflat/F


Repeat Chorus


"and nothings left to hide, oh"

   e----------------------------------
   B-11-------13----------------------
   G-12-------14----------------------
   D-13-------15----------------------
   A-10-------12----------------------
   E----------------------------------
   Gm(aug5)  Am(aug5)


End


  e-------------------
  B-------------------
  G--33--333--333-22--
  D--33--333--333-33--
  A--11--111--111-11--


Important: The song above is NOT stored on the Chordie server. The original song is hosted at www.xguitar.com. Chordie works as a search engine and provides on-the-fly formatting. Chordie does not index songs against artists'/composers' will. To remove this song please click here.

This song is displayed as text-only. Transposing and tuning is only available for chordpro-songs.

Login - add to songbook

Rating click stars to rate

Layout
Accuracy

SHARE PAGE  




You need to log in to post comments