Guitar Tabs, Chords and Lyrics


In Reverie    Saves The Day



Saves the Day - In Reverie

half a step down

   verse - guitar 1
eb|---------------------------------|
Bb|-7-7-7-7-7-7-7-7-7-7-7-7-5-5-5-5-|
Gb|-6-6-6-6-7-7-7-7-6-6-6-6-6-6-6-6-|
Db|-7-7-7-7-9-9-9-9-7-7-7-7-5-5-5-5-|
Ab|---------------------------------|
Eb|---------------------------------|

eb|-------|
Bb|-7-5-3-|
Gb|-6-4-2-|
Db|-7-5-4-|
Ab|-5-4-2-|
Eb|-------|

   guitar 2
eb|---------6-6-6-6-7-7-7-7-7-7-7-----------6-6-6-7-----------------|
Bb|-7-7-7-7-----------------------5-7-7-7-7---------8-8-8-8-5-5-5-5-|
Gb|-----------------------------------------------------------------|
Db|-----------------------------------------------------------------|
Ab|-----------------------------------------------------------------|
Eb|-----------------------------------------------------------------|

eb|---------10-10-10-10-7-7-7-7-7-7-7-7-5-5-5-5-2-2-2-2-5-5-5-5-5-5-5-5-|
Bb|-7-7-7-7-------------------------------------------------------------|
Gb|---------------------------------------------------------------------|
Db|---------------------------------------------------------------------|
Ab|---------------------------------------------------------------------|
Eb|---------------------------------------------------------------------|

eb|---------10-10-10-10-7-7-7-7-7-7-7-7-5-5-5-5-2-2-2-2---9-----|
Bb|-7-7-7-7-------------------------------------------------8---|
Gb|-----------------------------------------------------9-----9-|
Db|-------------------------------------------------------------|
Ab|-------------------------------------------------------------|
Eb|-------------------------------------------------------------|

   chorus
eb|---------------------------------------------0-----|
Bb|-7---------3-3---7-7---3-3---3-3---7-7-------5-----|
Gb|-6---6-6---2-2---6-6---2-2---2-2---6-6---------4---|
Db|-7---7-7---4-4---7-7---4-4---3-3---7-7-----5-----5-|
Ab|-5---7-7---2-2---5-5---2-2---2-2---5-5---4---------|
Eb|-----5-5-------------------------------------------|

   verse - guitar 1
eb|---------------------------------|
Bb|-7-7-7-7-7-7-7-7-7-7-7-7-5-5-5-5-|
Gb|-6-6-6-6-7-7-7-7-6-6-6-6-6-6-6-6-|
Db|-7-7-7-7-9-9-9-9-7-7-7-7-5-5-5-5-|
Ab|---------------------------------|
Eb|---------------------------------|

eb|-------|
Bb|-7-5-3-|
Gb|-6-4-2-|
Db|-7-5-4-|
Ab|-5-4-2-|
Eb|-------|

   guitar 2
eb|---------6-6-6-6-7-7-7-7-7-7-7-----------6-6-6-7-----------------|
Bb|-7-7-7-7-----------------------5-7-7-7-7---------8-8-8-8-5-5-5-5-|
Gb|-----------------------------------------------------------------|
Db|-----------------------------------------------------------------|
Ab|-----------------------------------------------------------------|
Eb|-----------------------------------------------------------------|

eb|---------10-10-10-10-7-7-7-7-7-7-7-7-5-5-5-5-2-2-2-2-5-5-5-5-5-5-5-5-|
Bb|-7-7-7-7-------------------------------------------------------------|
Gb|---------------------------------------------------------------------|
Db|---------------------------------------------------------------------|
Ab|---------------------------------------------------------------------|
Eb|---------------------------------------------------------------------|

eb|---------10-10-10-10-7-7-7-7-7-7-7-7-5-5-5-5-2-2-2-2---9-----|
Bb|-7-7-7-7-------------------------------------------------8---|
Gb|-----------------------------------------------------9-----9-|
Db|-------------------------------------------------------------|
Ab|-------------------------------------------------------------|
Eb|-------------------------------------------------------------|

   chorus
eb|---------------------------------------------0-----|
Bb|-7---------3-3---7-7---3-3---3-3---7-7-------5-----|
Gb|-6---6-6---2-2---6-6---2-2---2-2---6-6---------4---|
Db|-7---7-7---4-4---7-7---4-4---3-3---7-7-----5-----5-|
Ab|-5---7-7---2-2---5-5---2-2---2-2---5-5---4---------|
Eb|-----5-5-------------------------------------------|

   bridge
eb|---------2---------------0---------------2---------------5---------------2-------|
Bb|-------3---3-----------2---2-----------3---3-----------7---7-----------3---3-----|
Gb|-----2-------2-------2-------2-------2-------2-------6-------6-------2-------2---|
Db|---4-----------4---2-----------2---4-----------4---7-----------7---4-----------4-|
Ab|-2---------------0---------------2---------------5-------------------------------|
Eb|-----------------------------------------------------------------3---------------|

eb|---------0---------------5-----------------------|
Bb|-----------2-----------7---7-------------5-------|
Gb|-----0-------0-------6-------6-------4-----4-----|
Db|---2---2-------2---7-----------7---5---5-----5---|
Ab|-----------------5---------------4-------------4-|
Eb|-2-----------------------------------------------|

eb|---------2---------------0---------------2---------------5---------------2-------|
Bb|-------3---3-----------2---2-----------3---3-----------7---7-----------3---3-----|
Gb|-----2-------2-------2-------2-------2-------2-------6-------6-------2-------2---|
Db|---4-----------4---2-----------2---4-----------4---7-----------7---4-----------4-|
Ab|-2---------------0---------------2---------------5-------------------------------|
Eb|-----------------------------------------------------------------3---------------|

   guitar 1
eb|---------0---------------5-------5-|
Bb|-----------2-----------7---7-------|
Gb|-----0-------0-------6-------6-----|
Db|---2---2-------2---7-----------7---|
Ab|-----------------5-----------------|
Eb|-2---------------------------------|

   guitar 2
eb|-----------------------------|
Bb|-----------------------------|
Gb|-11-11-11-11-11-11-11-111111-|
Db|--x--x--x--x--x--x--x--x-x-x-|
Ab|--9--9--9--9--9--9--9--9-9-9-|
Eb|-----------------------------|

   chorus - guitar 1
eb|---------------------------------------------0-----|
Bb|-7---------3-3---7-7---3-3---3-3---7-7-------5-----|
Gb|-6---6-6---2-2---6-6---2-2---2-2---6-6---------4---|
Db|-7---7-7---4-4---7-7---4-4---3-3---7-7-----5-----5-|
Ab|-5---7-7---2-2---5-5---2-2---2-2---5-5---4---------|
Eb|-----5-5-------------------------------------------|

   guitar 2
eb|-------------------------|
Bb|-------------------------|
Gb|-11-11-11-11-11-11-11-11-|
Db|--x--x--x--x--x--x--x--x-|
Ab|--9--9--9--9--9--9--9--9-|
Eb|-------------------------|

eb|-----------9-10---9-----------9-10---------------9-10----------10-9-7-6---9b-|
Bb|-7-8---7-------------7-8---7-----------7-8---7----------7--7-8----------7----|
Gb|-----------------------------------------------------------------------------|
Db|-----------------------------------------------------------------------------|
Ab|-----------------------------------------------------------------------------|


Important: The song above is NOT stored on the Chordie server. The original song is hosted at www.xguitar.com. Chordie works as a search engine and provides on-the-fly formatting. Chordie does not index songs against artists'/composers' will. To remove this song please click here.

This song is displayed as text-only. Transposing and tuning is only available for chordpro-songs.

Login - add to songbook

Rating click stars to rate

Layout
Accuracy

SHARE PAGE  




You need to log in to post comments