Chordie logo

Monkey      Saves The Day



Saves the Day- Monkey
 Tabbed by Ivan Ward (aim: alkaline77)
	
	There could be a couple ways to play this depending on tuning.
	But since I don't know what they use, I just did it in drop D.
	Enjoy!

Tuning: DADGBE
Symbols:
         h - hammer on
         ~ - let ring

 |--------------------|---------|---------|---------|--------------------|
 |------------------2-|---------|---------|---------|------------------2-|
 |--------6---1-h-2---|2222-2222|2222-2222|2222-2222|--------6---1-h-2---|
 |--6-h-7-------------|2222-3333|4444-3333|2222-1100|--6-h-7-------------|
 |--------------------|---------|---------|---------|--------------------|
 |4---------3---------|---------|---------|---------|4---------3---------|

 |------------------|----------------|---------------|---------|---------|
 |------2-------0---|----3-------2---|----3-----2---3|---------|---------|
 |----2-------2---2-|------2-------4-|------2---4---1|2222-2222|2222-2222|
 |--4-------4-------|--4-------3-----|--4-------3---2|2222-3333|4444-3333|
 |------------------|2-------4-------|5---------4----|---------|---------|
 |2-------1---------|----------------|---------------|---------|---------|

 |---------|----------------------|--------------------|-------------------|
 |---------|--------------------2-|------2---------0---|----3----------2---|
 |2222-2222|--------6-----1-h-2---|----2---------2---2-|------2----------4-|
 |2222-1100|--6-h-7---------------|--4---------4-------|--4----------3-----|
 |---------|----------------------|--------------------|2----------4-------|
 |---------|4-----------3---------|2---------1---------|-------------------|

 |--------------|----------------|-----------0---2---|-----------|----2---|--------|
 |----3----2---3|----2-0-----2-0-|----2-0----0---2---|7---8--9---|5---2---|7---2---|
 |------2--4---1|----------------|-----------1---2---|7---8--9---|6---2---|7---2---|
 |--4------3---2|--2-------2-----|--2--------2---4---|7---8--9---|6---4---|7---2---|
 |5--------4----|0-------0-------|0----------2---4---|5---6--7---|4---4---|5---0---|
 |--------------|----------------|-------------------|-----------|--------|--------|

 |---------|-----2---|--------|--------|----------------|---------------------------|
 |7--7-8-9-|5----2---|7---2---|3---6---|7---7---6---9---|5-h-7-5-3-2--5-h-7-5-3-2-0-|
 |7--7-8-9-|6----2---|7---2---|4---6---|7---7---6---9---|---------------------------|
 |7--7-8-9-|6----4---|7---2---|4---6---|7---7---6---9---|---------------------------|
 |5--5-6-7-|4----4---|5---0---|2---4---|5---5---4---7---|---------------------------|
 |---------|---------|--------|--------|----------------|---------------------------|

 |-----------------|-----------------|-------------------|----------|---------|
 |2-5-3-2----------|2----------------|-------------------|2~~~------|---------|
 |--------2-----2-4|-----------------|-------------------|2222--2222|2222-2222|
 |------------4----|-----------------|-------------------|2222--3333|4444-3333|
 |-----------------|---2-4-2-4-2-0---|2-4-2-4-2-4-32-0-0-|----------|---------|
 |-----------------|---------------3-|-------------------|----------|---------|

 |---------|---------------------|-------------------|---------------------|
 |---------|-------------------2-|------2--------0---|-------------------2-|
 |2222-2222|--------6----1-h-2---|----2--------2---2-|--------6----1-h-2---|
 |2222-1100|--6-h-7--------------|--4--------4-------|--6-h-7--------------|
 |---------|---------------------|-------------------|---------------------|
 |---------|4----------3---------|2--------1---------|4----------3---------|

 |------------------|---------------------|-------------------|-------------------|
 |------2-------0---|-------------------2-|------2--------0---|3---3------2---2---|
 |----2-------2---2-|--------6----1-h-2---|----2--------2---2-|2-----2----4-----4-|
 |--4-------4-------|--6-h-7--------------|--4--------4-------|4-4--------3-3-----|
 |------------------|---------------------|-------------------|2----------4-------|
 |2-------1---------|4----------3---------|2--------1---------|-------------------|

 |----------------|----2---|--------|---------|----2---|--------|--------|--------|
 |7---7---8---9---|5---2---|7---2---|7---7-8-9|5---2---|7---2---|7---2---|7---2---|
 |7---7---8---9---|6---2---|7---2---|7---7-8-9|6---2---|7---2---|7---2---|7---2---|
 |7---7---8---9---|6---4---|7---2---|7---7-8-9|6---4---|7---2---|7---2---|7---2---|
 |5---5---6---7---|4---4---|5---0---|5---5-6-7|4---4---|5---0---|5---0---|5---0---|

 |----------------|--------|--------|---------|--------|--------|--------|--------|

 |5~~~--|
 |3~~~--|
 |2~~~--|
 |4~~~--|
 |2~~~--|


Important: The song above is NOT stored on the Chordie server. The original song is hosted at www.xguitar.com. Chordie works as a search engine and provides on-the-fly formatting. Chordie does not index songs against artists/composers will. To remove this song please click here.

This song is displayed as text-only. Transposing and tuning is only available for chordpro-songs.

Rating click stars to rate

Layout
Accuracy

SHARE PAGE  

You need to log in to post comments