Guitar Tabs, Chords and Lyrics


Rise    Saves The Day



Tabbed by Ivan Ward (aim: alkaline77)
     Tuning- Eb
      In the verse parts there is very obviously two guitars,
      I did my best to combine both into one though.

  Symbols-
     h- hammer on
     /- slide
     p- pull off	

Intro (Let's call it off . . .) x1

 |-2-2-2---------------------------------|
 |-3-3-3-----3--3-3-3--2-h-3--3-3-3--2-3-|
 |-4-4-4--4--4--4-4-4--2------2-2-2--2-2-|
 |-5-5-5--5--3--3-3-3--2-h-4--4-4-4--2-2-|
 |--------7--4--4-4-4--2------2-2-2--0-0-|
 |---------------------------------------|

Verse part 1 (If you could see . . .) x1

 |-2-2-2---------------------------------|
 |-3-3-3-----3--3-3-3--2-h-3--3-3-3--2-3-|
 |-4-4-4--4--4--4-4-4--2------2-2-2--2-2-|
 |-5-5-5--5--3--3-3-3--2-h-4--4-4-4--2-2-|
 |--------7--4--4-4-4--2------2-2-2--0-0-|
 |-3-3-3---------------------------------|

 |-2-2-2----------------------------|
 |-3-3-3-----3--3-3-3--2-h-3--3-3-3-|
 |-4-4-4--4--4--4-4-4--2------2-2-2-|
 |-5-5-5--5--3--3-3-3--2-h-4--4-4-4-|
 |--------7--4--4-4-4--2------2-2-2-|
 |-3-3-3----------------------------|

Verse part 2 (My heart beats . . .) x1

 |-0---------------------------4-p-2------0-------7-4------------------4-p-2-----|
 |-0--4---4------4---------4---------4----0-4-h-5------------------4---------4---|
 |-1--4-4---4--3---4-------4-----------4--1----------------4-------4-----------4-|
 |-2--4--------4---4-4-h-6---6------------2-----------1-2--4-4-h-6---6-----------|
 |-2--2-----------------------------------2--------------------------------------|
 |-0-----------2---4----------------------0----------------4---------------------|

 |-0-------7-4------|
 |-0-4-h-5-----4--3-|
 |-1-----------3--4-|
 |-2-----------4--3-|
 |-2--------------4-|
 |-0-----------2----|

Verse part 3 (When is the time . . . ) x1

 |-2-2-2---------------------------------|
 |-3-3-3-----3--3-3-3--2-h-3--3-3-3--2-3-|
 |-4-4-4--4--4--4-4-4--2------2-2-2--2-2-|
 |-5-5-5--5--3--3-3-3--2-h-4--4-4-4--2-2-|
 |--------7--4--4-4-4--2------2-2-2--0-0-|
 |-3-3-3---------------------------------|

 |-2-2-2----------------------------|
 |-3-3-3-----3--3-3-3--2-h-3--3-3-3-|
 |-4-4-4--4--4--4-4-4--2------2-2-2-|
 |-5-5-5--5--3--3-3-3--2-h-4--4-4-4-|
 |--------7--4--4-4-4--2------2-2-2-|
 |-3-3-3----------------------------|

Verse part 4 (Sunlight shining on my cheeks . . .) x1

 |-0---------------------------4-p-2------0-------7-4------------------|
 |-0--4---4------4---------4---------4----0-4-h-5------------------4---|
 |-1--4-4---4--3---4-------4-----------4--1----------------4-------4---|
 |-2--4--------4---4-4-h-6---6------------2-----------1-2--4-4-h-6---6-|
 |-2--2-----------------------------------2----------------------------|
 |-0-----------2---4----------------------0----------------4-----------|

 |-4-p-2-----0-------7-4------------------4-p-2----0-------7-4----|
 |-------4---0-4-h-5------------------4---------4--0-4-h-5------4-|
 |---------4-1----------------4-------4----------4-1------------3-|
 |-----------2-----------1-2--4-4-h-6---6----------2------------4-|
 |-----------2-------------------------------------2--------------|
 |-----------0----------------4--------------------0------------2-|

                                 strum this part
 |----------------------------------------------|
 |-3-3-3-3-3-3-3--2-2-2-2-2-2-2---2-2-2-2-2-2-2-|
 |-4-4-4-4-4-4-4--3-3-3-3-3-3-3---3-3-3-3-3-3-3-|
 |-3-3-3-3-3-3-3--4-4-4-4-4-4-4---4-4-4-4-4-4-4-|
 |-4-4-4-4-4-4-4--4-4-4-4-4-4-4---4-4-4-4-4-4-4-|
 |----------------------------------------------|

Chorus (When the skys start burning . . .) x1

 |-0-0-0-0-----------0-0-0-0-------0-0-0-0--------------|
 |-0-0-0-0--4-4-4-4--0-0-0-0--4-4--0-0-0-0--4-4-4-4--4--|
 |-1-1-1-1--4-4-4-4--1-1-1-1--4-4--1-1-1-1--4-4-4-4--3--|
 |-2-2-2-2--4-4-4-4--2-2-2-2--4-4--2-2-2-2--4-4-4-4--4--|
 |-2-2-2-2--2-2-2-2--2-2-2-2--2-2--2-2-2-2--2-2-2-2-----|
 |-0-0-0-0-----------0-0-0-0-------0-0-0-0-----------2--|

 |-0-0-0-0-----------0-0-0-0-------0-0-0-0-----------------|
 |-0-0-0-0--4-4-4-4--0-0-0-0--4-4--0-0-0-0--4-4-4-4--4--3--|
 |-1-1-1-1--4-4-4-4--1-1-1-1--4-4--1-1-1-1--4-4-4-4--3--4--|
 |-2-2-2-2--4-4-4-4--2-2-2-2--4-4--2-2-2-2--4-4-4-4--4--3--|
 |-2-2-2-2--2-2-2-2--2-2-2-2--2-2--2-2-2-2--2-2-2-2-----4--|
 |-0-0-0-0-----------0-0-0-0-------0-0-0-0-----------2-----|

Bridge x1

     Guitar 1

 |-2-2-2---------------------------------|
 |-3-3-3-----3--3-3-3--2-h-3--3-3-3--2-3-|
 |-4-4-4--4--4--4-4-4--2------2-2-2--2-2-| x3
 |-5-5-5--5--3--3-3-3--2-h-4--4-4-4--2-2-|
 |--------7--4--4-4-4--2------2-2-2--0-0-|
 |-3-3-3---------------------------------|

 |-2-2-2----------------------------|
 |-3-3-3-----3--3-3-3--2-h-3--3-3-3-|
 |-4-4-4--4--4--4-4-4--2------2-2-2-| x1
 |-5-5-5--5--3--3-3-3--2-h-4--4-4-4-|
 |--------7--4--4-4-4--2------2-2-2-|
 |-3-3-3----------------------------|

    Guitar 2 (start on 3rd intro riff)

                                     tremelo
 |-10-9-----12-10-12-10-12-/-14-10-------------|
 |-------12------------------------12-10-8--7--|
 |---------------------------------------------|
 |---------------------------------------------|
 |---------------------------------------------|
 |---------------------------------------------|

Chorus (The skys start burning . . .) x1

 |-0-0-0-0-----------0-0-0-0-------0-0-0-0--------------|
 |-0-0-0-0--4-4-4-4--0-0-0-0--4-4--0-0-0-0--4-4-4-4--4--|
 |-1-1-1-1--4-4-4-4--1-1-1-1--4-4--1-1-1-1--4-4-4-4--3--| x4
 |-2-2-2-2--4-4-4-4--2-2-2-2--4-4--2-2-2-2--4-4-4-4--4--|
 |-2-2-2-2--2-2-2-2--2-2-2-2--2-2--2-2-2-2--2-2-2-2-----|
 |-0-0-0-0-----------0-0-0-0-------0-0-0-0-----------2--|




Important: The song above is NOT stored on the Chordie server. The original song is hosted at www.xguitar.com. Chordie works as a search engine and provides on-the-fly formatting. Chordie does not index songs against artists'/composers' will. To remove this song please click here.

This song is displayed as text-only. Transposing and tuning is only available for chordpro-songs.

Login - add to songbook

Rating click stars to rate

Layout
Accuracy

SHARE PAGE  




You need to log in to post comments