Guitar Tabs, Chords and Lyrics


She    Saves The Day



SAVES THE DAY- SHE
ALBUM-IN REVERIE
TABBED BY-JORDAN RAMOS
Eb tuning
-INTRO
		   -verse 1(repeat 2x’s)
eb|----------------|---------------------0----------------|
Bb|----3---------0-|---2----0----------3--3---------------|
Gb|------2-----1---|----2---------2----2------2x’s--------|
Db|--3-------2-----|----------2----2---x------------------|
Ab|----------------|-0-----------------2------------------|
Eb|----------------|------4-----2-------------------------|
 Verse 2(1x)
eb|-----------------------|-------------------------------|
Bb|---2----0--------------|----3--------0-----------------|
Gb|----2---------2----1---|------2----1----repeat verse 1-|
Db|---------2-----2----2--|--3------2---------------------|
Ab|-----------------------|-------------------------------|
eb|-0----4-----2-----0----|-------------------------------|

  Verse 3
eb|--------------------------------1--------1-------------|
Bb|---2----0------2------2--------2-2------2-2------------|
Gb|----2---------2-2----2-2------2---2----2---2-----------|
Db|----------2--2---2--2---2----3-----3--3----------------|
Ab|-0-----------------------------------------------------|
Eb|------4-----2------2-----------------------------------|

eb|------------------------------------|------------------|
Bb|------2---------2---------3-------3-|----2--------0----|
Gb|-----4-4-------4-4---------2----2---|------3----1------|
Db|--2-2---2---2-2---2-----3-----3-----|--3------2--------|
Ab|--0---------0-----------------------|------------------|
eb|------------------------------------|------------------|

		   -verse 1(repeat 2x’s)
eb|---------------------0----------------|
Bb|---2----0----------3--3---------------|
Gb|----2---------2----2------2x’s--------|
Db|----------2----2---x------------------|
Ab|-0-----------------2------------------|
Eb|------4-----2-------------------------|

Verse 2(1x)
eb|-----------------------|-------------------------------|
Bb|---2----0--------------|----3--------0-----------------|
Gb|----2---------2----1---|------2----1-------------------|
Db|---------2-----2----2--|--3------2---------------------|
Ab|-----------------------|-------------------------------|
eb|-0----4-----2-----0----|-------------------------------|

  Verse 3
eb|--------------------------------1--------1-------------|
Bb|---2----0------2------2--------2-2------2-2------------|
Gb|----2---------2-2----2-2------2---2----2---2-----------|
Db|----------2--2---2--2---2----3-----3--3----------------|
Ab|-0-----------------------------------------------------|
Eb|------4-----2------2-----------------------------------|

eb|------------------------------------|------------------|
Bb|------2---------2---------3-------3-|----2--------0----|
Gb|-----4-4-------4-4---------2----2---|------3----1------|
Db|--2-2---2---2-2---2-----3-----3-----|--3------2--------|
Ab|--0---------0-----------------------|------------------|
eb|------------------------------------|------------------|

   -verse 1(repeat 2x’s)
eb|---------------------0----------------|
Bb|---2----0----------3--3---------------|
Gb|----2---------2----2------2x’s--------|
Db|----------2----2---x------------------|
Ab|-0-----------------2------------------|
Eb|------4-----2-------------------------|
Verse 2(1x)
eb|-----------------------|-------------------------------|
Bb|---2----0--------------|----3--------0-----------------|
Gb|----2---------2----1---|------2----1-------------------|
Db|---------2-----2----2--|--3------2---------------------|
Ab|-----------------------|-------------------------------|
eb|-0----4-----2-----0----|-------------------------------|
  Verse 3
eb|--------------------------------1--------1-------------|
Bb|---2----0------2------2--------2-2------2-2------------|
Gb|----2---------2-2----2-2------2---2----2---2-----------|
Db|----------2--2---2--2---2----3-----3--3----------------|
Ab|-0-----------------------------------------------------|
Eb|------4-----2------2-----------------------------------|

eb|------------------------------------|------------------|
Bb|------2---------2---------3-------3-|----2--------0----|
Gb|-----4-4-------4-4---------2----2---|------3----1------|
Db|--2-2---2---2-2---2-----3-----3-----|--3------2--------|
Ab|--0---------0-----------------------|------------------|
eb|------------------------------------|------------------|

eb|---------------------0----------------|
Bb|---2----0----------3--3---------------|
Gb|----2---------2----2------2x’s--------|
Db|----------2----2---x------------------|
Ab|-0-----------------2------------------|
Eb|------4-----2-------------------------|
		Outro
eb|----------------------0------0--------------|
Bb|----4-------0--------4-4----4-4-------------|
Gb|---2-2-----1-1------2---2--2---2=-----------|
Db|--4---4---0---0----4------4-----------------|
Ab|-2------------------------------------------|
Eb|---------0----------------------------------|




Important: The song above is NOT stored on the Chordie server. The original song is hosted at www.xguitar.com. Chordie works as a search engine and provides on-the-fly formatting. Chordie does not index songs against artists'/composers' will. To remove this song please click here.

This song is displayed as text-only. Transposing and tuning is only available for chordpro-songs.

Login - add to songbook

Rating click stars to rate

Layout
Accuracy

SHARE PAGE  




You need to log in to post comments