Guitar Tabs, Chords and Lyrics


What Went Wrong    Saves The Day



Into/ verse
------------------------------------------------------------------------------------0-----
----------------------------------------------------------------------------1---3------3--
--------------------------2--2---0----------------------------------0---------------------
------2--2---0---2--0-----3--3---0--------------------------------0---0-------------------
------3--3---3---3--3-----------------2--2--2---1---1--0--0----0-------------------------
--------------------------------------3--3--3-- 2---2--0--1-------------------------
play 2 times for into then verse begins



"
…all, sang a song in sorrw
--------------------------------------------------------------------------------------------
---------5-------5-------------------------------------------------------------------------
---------5-------5---7------------------------------------------------------------------
-----7---5---7---5---6-------------------------------------------------------------------
-----7---3---7---3---5---------------------------------------------------------------------
-----5-------5------------------------------------------------------------------------------





"…in the darkness    we were all         stripped searched   nothing was found
--------------------------------------------------------------------------------------------
----5------------------------------------------------------------------------------5-----
----5---------------------------------------------------------------4----2-----4---5-------
----5-----------------------7------------------------------3--------5----3-----5---5-------
----3-----------------------7------------------------------3--------5----3-----5---3--------
----------------------------5------------------------------1--------3----1-----3------------



end

---x---x---x-----------------------------------
---5---5---5-----------------------------------
---5---5---5---7-------------------------------
---5---5---5---6-------------------------------
---3---2---3---5-------------------------------
---x---x---x-----------------------------------

didnt give the stum paterns but you can figure it out if yer not


Important: The song above is NOT stored on the Chordie server. The original song is hosted at www.xguitar.com. Chordie works as a search engine and provides on-the-fly formatting. Chordie does not index songs against artists'/composers' will. To remove this song please click here.

This song is displayed as text-only. Transposing and tuning is only available for chordpro-songs.

Login - add to songbook

Rating click stars to rate

Layout
Accuracy

SHARE PAGE  




You need to log in to post comments