Guitar Tabs, Chords and Lyrics


Certain Tragedy    Saves The Day



"Certain Tragedy" - Saves The Day
Tabbed by Sean DeLonge

Intro & Verse
e|-------|-------------------------|
B|-------|-------------------------|
G|-------|-------------------------|
D|-------|--6-6-6-6----------------|
A|--6-6--|--4-4-4-4--4-4-4-4--6-6--|
E|--4-4--|-----------2-2-2-2--4-4--|

e|-----------------------------------------------|
B|-----------------------------------------------|
G|-----------------------------------------------|
D|--8-8-8-8--6-6-6-6-----------------------------|
A|--6-6-6-6--4-4-4-4--8-8-8-8--6-6-6-6--4-4-4-4--|
E|--------------------6-6-6-6--4-4-4-4--2-2-2-2--|

e|-----------------------------------------------|-------------|
B|-----------------------------------------------|-------------|
G|-----------------------------------------------|-------------|
D|--8-8-8-8--6-6-6-6-----------------------------|-------------|
A|--6-6-6-6--4-4-4-4--8-8-8-8--6-6-6-6--4-4-4-4--|--8-8\\6/8\\4--|
E|--------------------6-6-6-6--4-4-4-4--2-2-2-2--|--6-6\\4/6\\2--|

Chorus
e|--------------------------------|
B|--------------------------------|
G|--------------------------------|
D|--6-6-6-6-------8-8-8-8---------|
A|--4-4-4-4--4-4--6-6-6-6--4-4/6--|
E|-----------2-2-----------2-2/4--|

e|-----------------------------------|
B|-----------------------------------|
G|-----------------------------------|
D|--6-6-6-6-------8-8-8-8--11-11/13--|
A|--4-4-4-4--4-4--6-6-6-6---9--9/11--|
E|-----------2-2---------------------|

Bridge
e|-----------------------------------------------------------------|
B|-----------------------------------------------------------------|
G|-----------------------------------------------------------------|
D|--------------------------------------------------------6-6-6-6--|
A|--8-8-8-8--6-6-6-6--4-4-4-4--3-3-3-3--4-4-4-4--6-6-6-6--4-4-4-4--|
E|--6-6-6-6--4-4-4-4--2-2-2-2--1-1-1-1--2-2-2-2--4-4-4-4-----------|

Solo:
E|----------------------------|------------------------------|
B|----------------------------|------------------------------|
G|----------------------------|------------------------------|
D|--3--3--3------------3------|--3--3--3------------3--6-----|
A|------------6--4--6---------|------------6--4--6--------6--|
E|------------------------4---|------------------------------|

E|-------------------------|------------------------|
B|-------------------------|------------------------|
G|-------------------------|------------------------|
D|-----4p3-----------3-----|-----------6-------8----|
A|--6-------6--4--6--------|--------4-----6/8-------|


Important: The song above is NOT stored on the Chordie server. The original song is hosted at www.xguitar.com. Chordie works as a search engine and provides on-the-fly formatting. Chordie does not index songs against artists'/composers' will. To remove this song please click here.

This song is displayed as text-only. Transposing and tuning is only available for chordpro-songs.

Login - add to songbook

Rating click stars to rate

Layout
Accuracy

SHARE PAGE  




You need to log in to post comments