Chordie logo


Jukebox Breakdown    Saves The Day



-------------------------------------------------------------------------------
JUKEBOX BREAKDOWN - Saves The Day
-------------------------------------------------------------------------------

Tabbed By: Tyler - tyler@punkhardcore.net
Tunning: Standard Tuning - EBGDAE

Intro:
G|--4--|---44-----------------x-8-x-111111/13---44------------------------|
D|--4--|---44--------22x2--66-x-8-x-111111/13---44-------22x2--66-x-4-x-2-|
A|--2--|---22-4h6h4--22x2--66-x-6-x-9-9-9-/11---22-4h6h4-22x2--66-x-4-x-2-|
E|-----|-------------00x0--44----------------------------00x0--44-x-2-x-0-|
x8 x2

Verse:
G|-------------------------------------|
D|-99999999-88888888-6666666-4444-6666-|
A|-------------------------------------|
E|-------------------------------------|x2
[p.m.- - - - - - - - - - - - - - - ]

Pre-Chorus:
G|-4444----------------|
D|-4444-4444-2222-2222-|
A|-2222-4444-2222-2222-|
E|------2222-0000-0000-|x2

Chorus:
G|---44-----------------x-8-x-111111/13---44------------------------|
D|---44--------22x2--66-x-8-x-111111/13---44-------22x2--66-x-4-x-2-|
A|---22-4h6h4--22x2--66-x-6-x-9-9-9-/11---22-4h6h4-22x2--66-x-4-x-2-|
E|-------------00x0--44----------------------------00x0--44-x-2-x-0-| x1

Verse x2

Pre-Chorus x2

Chorus x2

Bridge:
G|-44-3----------------------------------------------------------------
D|-44-3--2---xx66xx66-xx99xx99-xx66xx44xx22xx22---xx66xx8/9--xx22xx22--
A|-22-1--2---xx66xx66-xx99xx99-xx66xx44xx22xx22---xx66xx8/9--xx22xx22--
E|-------0---xx44xx44-xx77xx77-xx44xx22xx00xx00---xx44xx6/7--xx00xx00--

Bridge Continued:
G|------------------------|
D|-xx99xx88xx66xx44-2---4-|
A|-xx99xx88xx66xx44-2---4-|
E|-xx77xx66xx44xx22-0---2-|

Little Part After The Bridge
G|-------------------99999999----------|
D|-99999999-88888888----------66666666-|
A|-------------------------------------|
E|-------------------------------------|x4
[p.m.- - - - - - - - - - - - - - - ]

Chorus x4

Ending:
G|----------------4-------------|
D|-66-x-4-x-2-----4----------9/-|
A|-66-x-4-x-2-----2----------9/-|
E|-44-x-2-x-0----------------7/-|



Important: The song above is NOT stored on the Chordie server. The original song is hosted at www.xguitar.com. Chordie works as a search engine and provides on-the-fly formatting. Chordie does not index songs against artists/composers will. To remove this song please click here.

This song is displayed as text-only. Transposing and tuning is only available for chordpro-songs.

Login - add to songbook

Rating click stars to rate

Layout
Accuracy

SHARE PAGE  




You need to log in to post comments