Guitar Tabs, Chords and Lyrics


Nightingale    Saves The Day



"Nightingale" - Saves The Day
Tabbed by Sean O'Rourke

Intro
e|---------------------------------------------------------------------------|
B|---------------------------------------------------------------------------|
G|---------------------------------------------------------------------------|
D|-----------4h6-------------4-2-1-------------------------------------------|
A|-------------------2-------------------------------------------------------|
E|-0----4------------0-------------------------------------------------------|

   Verse
e|---------------------------------------------------------------------------|
B|---------------------------------------------------------------------------|
G|---------------------------------------------------------------------------|
D|--2------6------2------6------2------6------2---6---4----------------------|
A|--2------6------2------6------2------6------2---6---4----------------------|
E|--0------4------0------4------0------4------0---4---2----------------------|

   Chorus
e|---------------------------------------------------------------------------|
B|---------------------------------------------------------------------------|
G|-------4----------------------4--------------------------------------------|
D|--2----4----4----6--4----2----4----4----6--4-------------------------------|
A|--2----2----4----6--4----2----2----4----6--4-------------------------------|
E|--0---------2----4--2----0---------2----4--2-------------------------------|

e|---------------------------------------------------------------------------|
B|---------------------------------------------------------------------------|
G|-------4----------------------4--------------------------------------------|
D|--2----4----4----6--4----2----4----4---------------------------------------|
A|--2----2----4----6--4----2----2----4---------------------------------------|


Important: The song above is NOT stored on the Chordie server. The original song is hosted at www.xguitar.com. Chordie works as a search engine and provides on-the-fly formatting. Chordie does not index songs against artists'/composers' will. To remove this song please click here.

This song is displayed as text-only. Transposing and tuning is only available for chordpro-songs.

Login - add to songbook

Rating click stars to rate

Layout
Accuracy

SHARE PAGE  




You need to log in to post comments