Guitar Tabs, Chords and Lyrics


This Is Not an Exit    Saves The Day



Saves The Day - "This Is Not An Exit"
Tabbed by Sean DeLonge

Verse
e|--------------------------------------------------------------------------|
B|--------------------------------------------------------------------------|
G|--------------------------------------------------------------------------|
D|-----2--3--7---*3--------2--5--3------------------------------------------|
A|-3-5----3--7---------3-5----5--3---*1-------------------------------------|
E|--------1--5----------------3--1------------------------------------------|

Chorus
e|--------------------------------------------------------------------------|
B|--------------------------------------------------------------------------|
G|-5------------------------------------------------------------------------|
D|-5--7--3--5---------------------------------------------------------------|
A|-3--7--3--5---------------------------------------------------------------|
E|----5--1--3---------------------------------------------------------------|

Bridge:
e|--------------------------------------------------------------------------|
B|--------------------------------------------------------------------------|
G|--------------------------------------------------------------------------|
D|-7-7--2-2--3-3----3-3--5-5--7----7-7--2-2--3----5-------------------------|
A|-7-7--2-2--3-3----3-3--5-5--7----7-7--2-2--3----5-------------------------|


Important: The song above is NOT stored on the Chordie server. The original song is hosted at www.xguitar.com. Chordie works as a search engine and provides on-the-fly formatting. Chordie does not index songs against artists'/composers' will. To remove this song please click here.

This song is displayed as text-only. Transposing and tuning is only available for chordpro-songs.

Login - add to songbook

Rating click stars to rate

Layout
Accuracy

SHARE PAGE  




You need to log in to post comments