Guitar Tabs, Chords and Lyrics


Banned from the Back Porch    Saves The Day



-------------------------------------------------------------------------------
BANNED FROM THE BACK PORCH - Saves the day
-------------------------------------------------------------------------------

By: John MacLean -any questions here's my email address
radioactiveman_13@hotmail.com

This song is tuned to drop D, if you dont know how to tune to that just match
the note on the 7th fret on the 6th string with an open 5th string. (its as
easy as that) this is also the whole song in order too..

Intro : 4 times
e|------------------------------------------------------------------------------|
B|------------------------------------------------------------------------------|
G|------------------------------------------------------------------------------|
D|---------4--5--4----------4--5--4----------7--6--7----------7--6--2-----------|
A|---------x-/x-/x----------x-/x-/x----------x-/x-/x----------x-/x-/x-----------|
D|-4-4-4-4-4--5--4--4-4-4-4-4--5--4--0-0-0-0-7--6--7--0-0-0-0-7--6--2-----------|
. . . . . . . . . . . . . . .

Verse : 2 times
e|------------------------------------------------------------------------------|
B|------------------------------------------------------------------------------|
G|------------------------------------------------------------------------------|
D|-4--4-4-4-4--4-4--4-4-4-4-4-4--7--7-7-7-7--7-0--0-0-0-0-0-0-------------------|
A|-4--4-4-4-4--4-4--4-4-4-4-4-4--7--7-7-7-7--7-0--0-0-0-0-0-0-------------------|
D|-4--4-4-4-4--4-4--4-4-4-4-4-4--7--7-7-7-7--7-0--0-0-0-0-0-0-------------------|
. . . . . . . . . . . . . . . . . . . .

e|------------------------------------------------------------------------------|
B|------------------------------------------------------------------------------|
G|------------------------------------------------------------------------------|
D|-4--4-4-4-4--4--4-4-4-4-4-4--7----0--0--0-------------------------------------|
A|-4--4-4-4-4--4--4-4-4-4-4-4--7-7--0--0--0-------------------------------------|
D|-4--4-4-4-4--4--4-4-4-4-4-4--7-6--0--0--0-------------------------------------|
. . . . . . . . . .

Intro : 2 times
e|------------------------------------------------------------------------------|
B|------------------------------------------------------------------------------|
G|------------------------------------------------------------------------------|
D|---------4--5--4----------4--5--4----------7--6--7----------7--6--2-----------|
A|---------x-/x-/x----------x-/x-/x----------x-/x-/x----------x-/x-/x-----------|
D|-4-4-4-4-4--5--4--4-4-4-4-4--5--4--0-0-0-0-7--6--7--0-0-0-0-7--6--2-----------|
. . . . . . . . . . . . . . .

Verse : 2 times
e|------------------------------------------------------------------------------|
B|------------------------------------------------------------------------------|
G|------------------------------------------------------------------------------|
D|-4--4-4-4-4--4-4--4-4-4-4-4-4--7--7-7-7-7--7-0--0-0-0-0-0-0-------------------|
A|-4--4-4-4-4--4-4--4-4-4-4-4-4--7--7-7-7-7--7-0--0-0-0-0-0-0-------------------|
D|-4--4-4-4-4--4-4--4-4-4-4-4-4--7--7-7-7-7--7-0--0-0-0-0-0-0-------------------|
. . . . . . . . . . . . . . . . . . . .

e|------------------------------------------------------------------------------|
B|------------------------------------------------------------------------------|
G|------------------------------------------------------------------------------|
D|-4--4-4-4-4--4--4-4-4-4-4-4--7----0--0--0-------------------------------------|
A|-4--4-4-4-4--4--4-4-4-4-4-4--7-7--0--0--0-------------------------------------|
D|-4--4-4-4-4--4--4-4-4-4-4-4--7-6--0--0--0-------------------------------------|
. . . . . . . . . .

Chorus
e|------------------------------------------------------------------------------|
B|------------------------------------------------------------------------------|
G|---------------------------9--9--9-9-9--9--9--9-9-9---------------------------|
D|-4--4--4-4-4--4--4--4-4-4--9--9--9-9-9--9--9--9-9-9--7--7--7-7-7--7--7--7-7-7-|
A|-4--4--4-4-4--4--4--4-4-4--7--7--7-7-7--7--7--7-7-7--7--7--7-7-7--7--7--7-7-7-|
D|-4--4--4-4-4--4--4--4-4-4----------------------------7--7--7-7-7--7--7--7-7-7-|

e|------------------------------------------------------------------------------|
B|------------------------------------------------------------------------------|
G|-7--7--7-7-7--7--7--7-7-7-----------------------------------------------------|
D|-7--7--7-7-7--7--7--7-7-7--4--4--4-4-4--4--4--4-4-4---------------------------|
A|-5--5--5-5-5--5--5--5-5-5--4--4--4-4-4--4--4--4-4-4--7--7--7-7-7--7--7--7-7-7-|
D|---------------------------4--4--4-4-4--4--4--4-4-4--6--6--6-6-6--6--6--6-6-6-|

e|------------------------------------------------------------------------------|
B|------------------------------------------------------------------------------|
G|------------------------------------------------------------------------------|
D|-7--7--7-7-7--7--7--7-7-7-7----7-7-7-7-7-7-7-7--------------------------------|
A|-7--7--7-7-7--7--7--7-7-7-7----7-7-7-7-7-7-7-7--------------------------------|
D|-7--7--7-7-7--7--7--7-7-7-7----7-7-7-7-7-7-7-7--------------------------------|
. . . . .

Verse 2 : 2 times
e|------------------------------------------------------------------------------|
B|------------------------------------------------------------------------------|
G|-7--7--7-7-7--7-7-7-7-7-7--2--2--2-2-2---4-4-4--------------------------------|
D|-7--7--7-7-7--7-7-7-7-7-7--2--2--2-2-2---4-4-4--7-7-7-------------------------|
A|-5--5--5-5-5--5-5-5-5-5-5--0--0--0-0-0---2-2-2--4-4-4-------------------------|
D|------------------------------------------------------------------------------|

-------------------------------------------------------------------------------
e|------------------------------------------------------------------------------|
B|------------------------------------------------------------------------------|
G|-7--7--7-7-7--7-7-7-7-7-7---2--2-2-2------------------------------------------|
D|-7--7--7-7-7--7-7-7-7-7-7---2--2-2-2---4---2--2-2-2---------------------------|
A|-5--5--5-5-5--5-5-5-5-5-5---0--0-0-0---4---2--2-2-2---------------------------|
E|---------------------------------------4---2--2-2-2---------------------------|
Bridge : 2 times
e|------------------------------------------------------------------------------|
B|------------------------------------------------------------------------------|
G|------------------------------------------------------------------------------|
D|--4----4-4----7----7-0-----4----4-4----7--7---0-------------------------------|
A|--4----4-4----7----7-0-----4----4-4----7--7---0-------------------------------|
E|--4----4-4----7----7-0-----4----4-4----7--7---0-------------------------------|
Bridge : 2nd guitar can play this(come in second time of 1st guitar part)
e|------------------------------------------------------------------------------|
B|------------------------------------------------------------------------------|
G|------------------------------------------------------------------------------|
D|-4-x-x-x-4-x-x-x--7-x-x-x-7-0-x-x-x-x--4-x-x-x-4-x-x-x--7---0-----------------|
A|-4-x-x-x-4-x-x-x--7-x-x-x-7-0-x-x-x-x--4-x-x-x-4-x-x-x--7-7-0-----------------|
D|-4-x-x-x-4-x-x-x--7-x-x-x-7-0-x-x-x-x--4-x-x-x-4-x-x-x--7-6-0-----------------|
Chorus
e|------------------------------------------------------------------------------|
B|------------------------------------------------------------------------------|
G|---------------------------9--9--9-9-9--9--9--9-9-9---------------------------|
D|-4--4--4-4-4--4--4--4-4-4--9--9--9-9-9--9--9--9-9-9--7--7--7-7-7--7--7--7-7-7-|
A|-4--4--4-4-4--4--4--4-4-4--7--7--7-7-7--7--7--7-7-7--7--7--7-7-7--7--7--7-7-7-|
D|-4--4--4-4-4--4--4--4-4-4----------------------------7--7--7-7-7--7--7--7-7-7-|

e|------------------------------------------------------------------------------|
B|------------------------------------------------------------------------------|
G|-7--7--7-7-7--7--7--7-7-7-----------------------------------------------------|
D|-7--7--7-7-7--7--7--7-7-7--4--4--4-4-4--4--4--4-4-4---------------------------|
A|-5--5--5-5-5--5--5--5-5-5--4--4--4-4-4--4--4--4-4-4--7--7--7-7-7--7--7--7-7-7-|
D|---------------------------4--4--4-4-4--4--4--4-4-4--6--6--6-6-6--6--6--6-6-6-|

e|------------------------------------------------------------------------------|
B|------------------------------------------------------------------------------|
G|------------------------------------------------------------------------------|
D|-7--7--7-7-7--7--7--7-7-7-7----7-7-7-7-7-7-7-7--------------------------------|
A|-7--7--7-7-7--7--7--7-7-7-7----7-7-7-7-7-7-7-7--------------------------------|
D|-7--7--7-7-7--7--7--7-7-7-7----7-7-7-7-7-7-7-7--------------------------------|
. . . . .
Verse 3 : 2 times
e|------------------------------------------------------------------------------|
B|------------------------------------------------------------------------------|
G|-----------------------------2--2--2-2-2---4-4-4------------------------------|
D|--0--0--0-0-0--0-0-0-0-0-0---2--2--2-2-2---4-4-4--7-7-7-----------------------|
A|--0--0--0-0-0--0-0-0-0-0-0---0--0--0-0-0---2-2-2--4-4-4-----------------------|
D|--0--0--0-0-0--0-0-0-0-0-0----------------------------------------------------|

e|------------------------------------------------------------------------------|
B|------------------------------------------------------------------------------|
G|----------------------------2--2-2-2------------------------------------------|
D|-0--0--0-0-0--0-0-0-0-0-0---2--2-2-2---4---2--2-2-2---------------------------|
A|-0--0--0-0-0--0-0-0-0-0-0---0--0-0-0---4---2--2-2-2---------------------------|
E|-0--0--0-0-0--0-0-0-0-0-0--------------4---2--2-2-2---------------------------|
Verse 2
e|------------------------------------------------------------------------------|
B|------------------------------------------------------------------------------|
G|-7--7--7-7-7--7-7-7-7-7-7--2--2--2-2-2---4-4-4--------------------------------|
D|-7--7--7-7-7--7-7-7-7-7-7--2--2--2-2-2---4-4-4--7-7-7-------------------------|
A|-5--5--5-5-5--5-5-5-5-5-5--0--0--0-0-0---2-2-2--4-4-4-------------------------|
D|------------------------------------------------------------------------------|

e|------------------------------------------------------------------------------|
B|------------------------------------------------------------------------------|
G|-7--7--7-7-7--7-7-7-7-7-7---2--2-2-2------------------------------------------|
D|-7--7--7-7-7--7-7-7-7-7-7---2--2-2-2---4---2--2-2-2---------------------------|
A|-5--5--5-5-5--5-5-5-5-5-5---0--0-0-0---4---2--2-2-2---------------------------|
E|---------------------------------------4---2--2-2-2---------------------------|
Ending
e|------------------------------------------------------------------------------|
B|------------------------------------------------------------------------------|
G|-7--7--7-7-7--7-7-7-7-7-7--2--2--2-2-2---4-4-4--------------------------------|
D|-7--7--7-7-7--7-7-7-7-7-7--2--2--2-2-2---4-4-4--7-7-7-------------------------|
A|-5--5--5-5-5--5-5-5-5-5-5--0--0--0-0-0---2-2-2--4-4-4-------------------------|
D|------------------------------------------------------------------------------|

e|------------------------------------------------------------------------------|
B|------------------------------------------------------------------------------|
G|-7--7--7-7-7--7-7-7-7-7-7-----------------------------------------------------|
D|-7--7--7-7-7--7-7-7-7-7-7---7---4---0---7---7---0-----------------------------|
A|-5--5--5-5-5--5-5-5-5-5-5---7---4---0---7---7---0-----------------------------|


Important: The song above is NOT stored on the Chordie server. The original song is hosted at www.xguitar.com. Chordie works as a search engine and provides on-the-fly formatting. Chordie does not index songs against artists'/composers' will. To remove this song please click here.

This song is displayed as text-only. Transposing and tuning is only available for chordpro-songs.

Login - add to songbook

Rating click stars to rate

Layout
Accuracy

SHARE PAGE  




You need to log in to post comments