Guitar Tabs, Chords and Lyrics


My Sweet Fracture   Saves The Day

-------------------------------------------------------------------------------



-------------------------------------------------------------------------------

G-----6------7-6------6------7-6------6------7-6------6------7-6-|
D-7-7----7-7------7-7----7-7-------------------------------------|
A---------------------------------7-7----7-7------7-7----7-7-----|
G-----6------6-7------6------6-7------6------7-6------6------7-6-|
D-4-4----4-4------4-4----4-4------0-0----0-0------0-0----0-0-----|
G-2>>>--------------7>>>-|
D-2>>>--2>>>--4>>>--7>>>-|
A-0>>>--2>>>--4>>>--5>>>-| Let Chords Ring
E-------0>>>--2>>>-------|
A-4-4-4-4-4--5-4--4-4-4-4-4--5-4--4-4-4-4-4--5-4--4-4-4-4-4--5-4-|
E-5-5-5-5-5--5-5--5-5-5-5-5--5-5--0-0-0-0-0--0-0--0-0-0-0-0--0-0-|
D---------------------------------7-7-7-7-7--7-7--7-7-7-7-7--7-7-|
A-4-4-4-4-4--5-4--4-4-4-4-4--5-4--5-5-5-5-5--4-5--5-5-5-5-5--4-5-|
E-2-2-2-2-2--2-2--2-2-2-2-2--2-2---------------------------------|
[B5]Cau[D5]se [A5]don't you love those leaves?
[B5]Don[D5]'t [A5]you[D5] wi[E5(7]sh the[E5(7] orange [F#5(9]stayed fo[E5(7]rever and
[B5]Cri[D5]cke[A5]ts [D5]san[A5]g in the night
[B5]all[D5] th[E5]rough winter?"
(Verse 2 is the same as Verse 1)
G-2>>>--------------7>>>-|
D-2>>>--2>>>--4>>>--7>>>-|
A-0>>>--2>>>--4>>>--5>>>-| Let Chords Ring
E-------0>>>--2>>>-------|

And I thought, slow down, Chris
Think of all the time this jerk
has ***ed you up and left you down
And hey, I choose my company
by the beating of their hearts
Not the swelling of their heads

A-4-4-4-4-4--5-4--4-4-4-4-4--5-4--4-4-4-4-4--5-4--4-4-4-4-4--5-4-|
E-5-5-5-5-5--5-5--5-5-5-5-5--5-5--0-0-0-0-0--0-0--0-0-0-0-0--0-0-|

pm.... ... ... ... ... ... ... ...

D---------------------------------7-7-7-7-7--7-7--7-7-7-7-7--7-7-|
A-4-4-4-4-4--5-4--4-4-4-4-4--5-4--5-5-5-5-5--4-5--5-5-5-5-5--4-5-|
E-2-2-2-2-2--2-2--2-2-2-2-2--2-2---------------------------------|

pm... ... ... ... ... ... ... ...

Chorus
[B5]Cau[D5]se [A5]don't you love those leaves?
[B5]Don[D5]'t [A5]you[D5] wi[E5(7]sh the[E5(7] orange [F#5(9]stayed fo[E5(7]rever and
[B5]Cri[D5]cke[A5]ts [D5]san[A5]g in the night
B5 D5 E5 (Let E5 ring out)
all through winter?"


G-------6----------------9--------9----------9--------9---------7--6--7-|
D----7-----7----------7-----7-------------6-----6------------7----------|
A-0-----------0----9-----------9-------7-----------7------5-------------|
G-------6----------------9--------9----------9--------9---------7--6-h-7--6-h-7-/-9-7-|
D----7-----7----------7-----7-------------6-----6------------7------------------------|
A-0-----------0----9-----------9-------7-----------7------5---------------------------|


(the other guitar just palm mutes the chords: A5, F#5, E5, D5, while the
other guitar plays...)
"Rather forget..."
G----------------------------------------------------7-7-7-7-7-6-h-7-7---|
D-7-7-7-7-7-7-7-7--4-4-4-4-4-4-4-4--2-2-2-2-2-2-2-2--7-7-7-7-7---------7-|
A-7-7-7-7-7-7-7-7--4-4-4-4-4-4-4-4--2-2-2-2-2-2-2-2--5-5-5-5-5-----------|
E-5-5-5-5-5-5-5-5--2-2-2-2-2-2-2-2--0-0-0-0-0-0-0-0----------------------|

p.m..........................................................

"Rather Forget..."
E----------------------------9--------------------------------------------|
B------------------------------10----------------9------------------------|
G----------------11-11-11-11------11-----9-9-9-9---9---9--7-7-7-7-7-7-7-7-|
D-7-7-7-7-7-7-7--11-11-11-11---------11--9-9-9-9-----9----7-7-7-7-7-7-7-7-|
A-7-7-7-7-7-7-7---9--9--9--9-------------7-7-7-7----------5-5-5-5-5-5-5-5-|
E-5-5-5-5-5-5-5-----------------------------------------------------------|

pm.......................... ....... ...........

Bridge:
[A5]Bes[F#5]ides, I'd rather forget the days we spent
[E5]Tha[D5]n try to stay afloat in shallow water

End:
G-2-|
D-2-|
A-0-|

-------------------------------------------------------------------------------


Important: The song above is NOT stored on the Chordie server. The original song is hosted at www.xguitar.com. Chordie works as a search engine and provides on-the-fly formatting. Chordie does not index songs against artists'/composers' will. To remove this song please click here.

Text color:
Chord color:
Chord grids: 
Font size:    
Page size: 

A5 B5 D5 E5 F#5
variations - click chord images

Login - add to songbook

Transpose chords

Tuning

Rating click stars to rate

Layout
Accuracy

SHARE PAGE  




You need to log in to post comments