Guitar Tabs, Chords and Lyrics


Rocks Tonic Juice Magic    Saves The Day



"Rocks Tonic Juice Magic" - Saves The Day
Tabbed by Sean DeLonge

Intro
G---------------------6--------------------------------------------8-|
D--3------------------6--------------------------6-----------------8-|
A--3------------------4--------------------------6-----------------6-|
E--1---------------------------------------------4-------------------|

End of 1st Verse
B------------------------------------------------------6--------------------|
G----------------------------------------------------------8---6---8--------|
D--3----------------------------------------------------------------------6-|
A--3----------------------------------------------------------------------6-|
E--1----------------------------------------------------------------------4-|

Chorus
G--3-----------------------6-------------------------------8-|
D--3-----------------------6-------------6-----------------8-|
A--1-----------------------4-------------6-----------------6-|
E----------------------------------------4-------------------|



Bridge
G-----------------8--------------------6------------------------8-|
D-6---------------8--------------------6---------------3--------8-|
A-6---------------6--------------------4---------------3--------6-|
E-4----------------------------------------------------1----------|

End
G-----5---6-|
D-3---5---6-|
A-3---3---4-|


Important: The song above is NOT stored on the Chordie server. The original song is hosted at www.xguitar.com. Chordie works as a search engine and provides on-the-fly formatting. Chordie does not index songs against artists'/composers' will. To remove this song please click here.

This song is displayed as text-only. Transposing and tuning is only available for chordpro-songs.

Login - add to songbook

Rating click stars to rate

Layout
Accuracy

SHARE PAGE  




You need to log in to post comments