Guitar Tabs, Chords and Lyrics


The Last Lie I Told    Saves The Day



-------------------------------------------------------------------------------
THE LAST LIE I TOLD - Saves The Day
-------------------------------------------------------------------------------

By:Kyle

intro
e|---------------------------------------------------------------------------|
B|-5-5-4-4-4-4--4-4-5-5-4-------5-5-4-4-4-4--4-4-5-5-5-5---------------------|
G|-4-4-4-4-4-4--4-4-4-4-4-------4-4-4-4-4-4--4-4-4-4-4-4---------------------|
D|-2-2-2-2-2-2//4-4-6-6-6--2-2--2-2-2-2-2-2//4-4-6-6-6-2---------------------|
A|-------------------------2-2-----------------------------/////pickscrape///|
E|-------------------------0-0-----------------------------------------------|

riff 1
"im in a parking lot...................oooooooo i can hear some dogs...."
e|---------------------------------------------------------------------------|
B|---------------------------------------------------------5-4-7-----5-4-7---|
G|----------4-----------9-9-8-6-4-------4----------------4---------4---------|
D|-2-6-4-6--4---------2-x-x-x-x-x-6-4-6-4---2~~~~-2-2------------------------|
A|-2-6-4-6--2--X3-----2-7-7-6-4-2-6-4-6-2---2~~~~-2-2------------------------|
E|-0-4-2-4------------0-----------4-2-4-----0~~~~-0-0------------------------|
let ring
e|---------------------------------------------------------------------------|
B|---------------------------------------------------------------------------|
G|----------4-----------9-9-8-6-4--------------------------------------------|
D|-2-6-4-6--4---------2-x-x-x-x-x-6-6-6-9-9----------------------------------|
A|-2-6-4-6--2--X3-----2-7-7-6-4-2-6-6-6-9-9----------------------------------|
E|-0-4-2-4------------0-----------4-4-4-7-7----------------------------------|

bridge
e|---------------------------------------------------------------------------|
B|---------------------------------------------------------------------------|
G|-9---------9--9--9---------------9--9--9----------9--9--9------------------|
D|-9---------9--9--9---------------9--9--9----------9--9--9------------------|
A|-7-7-7-7-7-7--7--7--7-7-7-7-7-7--7--7--6-6-6-6-6--6--6--6------------------|
E|---------------------------------------------------------------------------|
pm..... .......... ......

e|---------------------------------------------------------------------------|
B|---------------------------------------------------------------------------|
G|------------9--9--9-----------9--9--9-------------9--9---------------------|
D|------------9--9--9-----------9--9--9-------------9--9--6------------------|
A|-6-6-6-6-6--6--6--x-----------x--x--x-------------x--x--6------------------|
E|------------------9--9-9-9-9--9--9--9--9-9-9-9-9--9--9--4-4-4-4-4-4--------|
pm....... ....... ......... ..........

e|---------------------------------------------------------------------------|
B|------------------------------5p4---4h5p4--5p4--7p4------------------------|
G|----------------------------4----4-4------4----4---4-----------------------|
D|-6--6--9---------9---------------------------------------------------------|
A|-6--6--9---------9---------------------------------------------------------|
E|-4--4--7-7-7-7-7-7---------------------------------------------------------|
pm..... gtr 2 ^

riff 2
e|---------------------------------------------------------------------------|
B|-5-5-5-5-5-4-4-4-4-4-4-----------------------------------------------------|
G|-4-4-4-4-4-4-4-4-4-4-4-6-6-6-6-6-6-------------4-3-4-6-9-8-6-4-------------|
D|-2-2-2-2-2-2-2-2-2-2-2-6-6-6-6-6-6-6-6-6-6-6-6-x-x-x-x-x-x-x-x---x2--------|
A|-2-2-2-2-2-2-2-2-2-2-2-4-4-4-4-4-4-6-6-6-6-6-6-2-1-2-4-7-6-4-2-------------|
E|-0-0-0-0-0-2-----------------------4-4-4-4-4-4-----------------------------|

e|---------------------------------------------------------------------------|
B|---------------------------------------------------------------------------|
G|---------------------------------------------------------------------------|
D|---------2-----------------------------------------------------------------|
A|--end-on-2-----------------------------------------------------------------|
E|---------0-----------------------------------------------------------------|



Important: The song above is NOT stored on the Chordie server. The original song is hosted at www.xguitar.com. Chordie works as a search engine and provides on-the-fly formatting. Chordie does not index songs against artists'/composers' will. To remove this song please click here.

This song is displayed as text-only. Transposing and tuning is only available for chordpro-songs.

Login - add to songbook

Rating click stars to rate

Layout
Accuracy

SHARE PAGE  




You need to log in to post comments