Chordie logo


Third Engine    Saves The Day



"Third Engine" - Saves The Day
Tabbed by Sean DeLonge

Intro
D-5--5--5-5-5--5--4--4--4-4-4--4---2--2--2-2-2--2--2--2--2-2-|
A-7--7--7-7-7--7--5--5--5-5-5--5---3--3--3-3-3--3--3--3--3-3-|

Chorus "Did you know ...."
G-----------------------------7--7--7-7-7--7-7-7--7-/-9-/-7--5--5--5-5-5--5-5-5--5--5-5-|
D-5--5--5-5-5--5-5-5--5--5-5--7--7--7-7-7--7-7-7--x-/-x-/-x--5--5--5-5-5--5-5-5--5--5-5-|
A-5--5--5-5-5--5-5-5--5--5-5--5--5--5-5-5--5-5-5--5-/-7-/-5--3--3--3-3-3--3-3-3--3--3-3-|
E-3--3--3-3-3--3-3-3--3--3-3------------------------------------------------------------|

G-7-/-9-/-7--5--5--5-5-5--5-5-5--5--5-5-|
D-x-/-x-/-x--5--5--5-5-5--5-5-5--5--5-5-|
A-5-/-7-/-5--3--3--3-3-3--3-3-3--3--3-3-|


Bridge
D-2-|
A-2-|
E-0-|

End Part thingy
D-2--2-2-2-2-2-2-2-2--5--5-5-5-5-5-5-5-5--4--4-4-4-4-4-4-4-4--2--2-2-2-2-2-2-2-2-|
A-2--2-2-2-2-2-2-2-2--5--5-5-5-5-5-5-5-5--5--5-5-5-5-5-5-5-5--3--3-3-3-3-3-3-3-3-|


Important: The song above is NOT stored on the Chordie server. The original song is hosted at www.xguitar.com. Chordie works as a search engine and provides on-the-fly formatting. Chordie does not index songs against artists/composers will. To remove this song please click here.

This song is displayed as text-only. Transposing and tuning is only available for chordpro-songs.

Login - add to songbook

Rating click stars to rate

Layout
Accuracy

SHARE PAGE  




You need to log in to post comments