Guitar Tabs, Chords and Lyrics


You Vandal    Saves The Day



-------------------------------------------------------------------------------
YOU VANDAL - Saves The Day
-------------------------------------------------------------------------------

By: SIege-O Jankydank@aol.com

The other tab for this song is completly wrong, i tried to figure out how to
play with using 1 guitar but you gotta be fast.

INTRO:
e:----------------------------------------------------------------------------------
B:----------------------------------------------------------------------------------
G:----------------------------------------------------------------------------------
D:------------------------------------------------4-x-4-x-4-x-4---------------------
A:--6-x-6-x-6-x-4--6/7\\6---2-x-2-x-2-x-2---6/7\\6--2-x-2-x-2-x-2--6/7\\6----4-x-4-4-4-
E:--4-x-4-x-4-x-6----------0-x-0-x-0-x-0----------------------------------2-x-2-2-2-

VERSE: play each chord 8 times cept the octaves....
e|---------------------------------------------------------------------------|
B|---------------------------------------------------------------------------|
G|---------------------------------------------------------------------------|
D|----------------9----------------------------------------------------------|
A|-4--------------7-------------------9--------------------------------------|
E|-6----------------------------------7--------------------------------------|
"last night....dreamnt.........coasta rica......"

e|---------------------------------------------------------------------------|
B|---------------------------------------------------------------------------|
G|------9-----------11------13---11------------------------------------------|
D|---------------------------------------------------------------------------|
A|------7-----------9-------11---9-------------------------------------------|
E|---------------------------------------------------------------------------|
"Yah the place youve been the last 2 weeks"

CHORUS:
e|---------------------------------------------------------------------------|
B|---------------------------------------------------------------------------|
G|---------------------------------------------------------------------------|
D|--4-4----------------------------------------------------------------------|
A|--2-2-6/7----2-2-6/7--6-6--6/7--4-4--6/7-6---------------------------------|
E|-------------0-0------4-4-------2-2----------------------------------------|

Mini Bridge Before second verse:
e|---------------------------------------------------------------------------|
B|---------------------------------------------------------------------------|
G|---------------------------------------------------------------------------|
D|---------------------------------------------------------------------------|
A|--3--3--3--3----5--5--5--5---6-6-6-6---------------------------------------|
E|--1--1--1--1----3--3--3--3---4-4-4-4---------------------------------------|

Second Verse is same as intro...

bridge:X2
Play each chord about 8 times
e|---------------------------------------------------------------------------|
B|---------------------------------------------------------------------------|
G|--4----6----8----9---------------------------------------------------------|
D|---------------------------------------------------------------------------|
A|--2----4----6----7---------------------------------------------------------|
E|---------------------------------------------------------------------------|
"i hope that your still trying......" i couldnt get the little solo while
this is going on.

then back to chorus



Important: The song above is NOT stored on the Chordie server. The original song is hosted at www.xguitar.com. Chordie works as a search engine and provides on-the-fly formatting. Chordie does not index songs against artists'/composers' will. To remove this song please click here.

This song is displayed as text-only. Transposing and tuning is only available for chordpro-songs.

Login - add to songbook

Rating click stars to rate

Layout
Accuracy

SHARE PAGE  




You need to log in to post comments