Guitar Tabs, Chords and Lyrics


Clash City Rockers    Saves The Day



-------------------------------------------------------------------------------
CLASH CITY ROCKERS - Saves The Day
-------------------------------------------------------------------------------

By: bt12483@aol.com x=palm mute, r=let ring, /=slide

Intro (2x)
e|---------------------------------------------------------------------------|
B|---------------------------------------------------------------------------|
G|-9-77-----------4-9--------------------------------------------------------|
D|-9-77-7-55-9-77-4-9--------------------------------------------------------|
A|-7-55-7-55-9-77-2-7--------------------------------------------------------|
E|------5-33-7-55------------------------------------------------------------|

Verse (3x then use intro for fourth time, listen and you'll know what I mean)
e|---------------------------------------------------------------------------|
B|---------------------------------------------------------------------------|
G|-9-77-----------4-99-------------------------------------------------------|
D|-9-77-7-55-9-77-4-99-------------------------------------------------------|
A|-7-55-7-55-9-77-2-77-------------------------------------------------------|
E|------5-33-7-55------------------------------------------------------------|

Chorus: So don't complain...
e|-----------------------------------------------------------------------------|
B|--------------------------->>>>>>>>>last time don't palm mute where x's are|
G|-6--------4----------------xx9-----9---------(leading into end part)---------|
D|-6-(16x)--4-(16x)--7-------xx9-xx9-9-----------------------------------------|
A|-4--------2--------7-(16x)-xx7-xx9-7-----------------------------------------|
E|-------------------5-----------xx7-------------------------------------------|

End:(2x) You owe me a move...
e|---------------------------------------------------------------------------|
B|---------------------------------------------------------------------------|
G|--------9------------------------------------------------------------------|
D|-/7--9--9r-7-----7----6----4-----xx2xx2-----------xx7xx7-xx6xx6-xx4xx4-2---|
A|-/7r-9r-7--7r----7(8x)6(8x)4(8x)-xx2xx2-last time xx7xx7-xx6xx6-xx4xx4-2r--|
E|-/5--7-----5-----5----4----2-----xx0xx0-----------xx5xx5-xx4xx4-xx2xx2-0---|
pm...............

e|---------------------------------------------------------------------------|
B|---------------------------------------------------------------------------|
G|---------------------------------------------------------------------------|
D|-2-------------------------------------------------------------------------|
A|-2r--7 times, listen for timing--------------------------------------------|
E|-0-------------------------------------------------------------------------|



Important: The song above is NOT stored on the Chordie server. The original song is hosted at www.xguitar.com. Chordie works as a search engine and provides on-the-fly formatting. Chordie does not index songs against artists'/composers' will. To remove this song please click here.

This song is displayed as text-only. Transposing and tuning is only available for chordpro-songs.

Login - add to songbook

Rating click stars to rate

Layout
Accuracy

SHARE PAGE  




You need to log in to post comments