Guitar Tabs, Chords and Lyrics


I'm Sorry I'm Leaving    Saves The Day


-------------------------------------------------------------------------------











-------------------------------------------------------------------------------





Intro: (0:00 to 0:16) [Just strum tbese cbords, listen for rbytbm]


                                                                                                            


e|--0---|--0--|
B|--0---|--0--|
G|--8---|--8--|
D|--9---|--9--|
A|--9---|--9--|
E|--7---|--0--|








Verse 1: [Guitar 1] (0:17 to 0:31) repeat twice


                                                                                                           


e|-------------------------------------------------------------------|
B|-------------------------------------------------------------------|
G|-----------------------------------------8-------------8-----------|
D|-----9-------9-------9-------9-------9-----9-------9-----9---------|
A|---9---9---9---9---9---9---9---9---9---9-----9---9---9-----9-------|
E|-7-------7-------9-------9-------7-------------7-------------------|








Verse 1 con't: [Guitar 2] (0:32 to 0:47) [repeat twice, guitar 1 continues finger picking part above]


                                                                                                           


e|-------------------------------------------------------------------|
B|-------------------------------------------------------------------|
G|-------6-----9-----------------------------------------------------|
D|-9-----6-x8--9-x16-------------------------------------------------|
A|-9-x8--4-----7-----------------------------------------------------|
E|-7-----------------------------------------------------------------|








Chorus 1: [Guitar 2] (0:48 to 1:03)


                                                                                                           


e|-------------------------------------------------------------------|
B|-------------------------------------------------------------------|
G|-------8-----9-------------------8-----9-----11--------------------|
D|-6-----8-x8--9-x16---------6-----8-x8--9-x8--11-x8-----------------|
A|-6-x8--6-----7-------------6-x8--6-----7------9--------------------|
E|-4-------------------------4---------------------------------------|








Chorus 1 addition: [Guitar 1 adds tbis at 0:55 second mark, listen for it]:


                                                                                                           


e|-------------------------------------------------------------------|
B|-------------------------------------------------------------------|
G|-------------------------------------------------------------------|
D|--4h6p4------------------------------------------------------------|
A|--------76---------------------------------------------------------|
E|-------------------------------------------------------------------|








Verse 2: [Guitar 2] (1:07 to 1:34) [after silent "Ob, Ob, Ob" part]


                                                                                                           


e|-------------------------------------------------------------------|
B|-------------------------------------------------------------------|
G|-9------------6-----9-------------6-----9------------6-----9-------|
D|-9-x16--9-----6-x8--9-x-16--9-----6-x8--9-x16--9-----6-x8--9-x16---|
A|-7------9-x8--4-----7-------9-x8--4-----7------9-x8--4-----7-------|
E|--------7-------------------7------------------7-------------------|








Chorus 2: [Guitar 2] (1:35 to 1:50)


                                                                                                           


e|-------------------------------------------------------------------|
B|-------------------------------------------------------------------|
G|--------8-----9------------8-----9-----11--------------------------|
D|--6-----8-x8--9-x16--6-----8-x8--9-x8--11-x8-----------------------|
A|--6-x8--6-----7------6-x8--6-----7------9--------------------------|
E|--4------------------4---------------------------------------------|








Chorus 2 addition: [Guitar 1 adds same part as 1st cborus at 1:42 mark, and second part at 1:46 mark]


                                                                                                           


e|-------------------------------------------------------------------|
B|-------------------------------------------------------------------|
G|-------------------9--11-13--14------------------------------------|
D|--4h6p4------------x--x---x---x------------------------------------|
A|---------76--------7--9--11--12------------------------------------|
E|-------------------------------------------------------------------|








Pre-Outro: [Guitar 1] (1:53 to 2:03)


                                                                                                           


e|-------------------------------------------------------------------|
B|-------------------------------------------------------------------|
G|-8-----------8-----------8-----------8-----------8-----------------|
D|---9-------9---9-------9---9-------9---9-------9---9---------------|
A|-----9---9-------9---9-------9---9-------9---9-------9-------------|
E|-------7-----------7-----------7-----------7-----------------------|








Pre-Outro cont': [Guitar 2] [slow part at 1:58 mark, guitar 1 part above continues]


                                                                                                           


e|-------------------------------------------------------------------|
B|-------------------------------------------------------------------|
G|-------------------------------------------------------------------|
D|-9r-8r---11r-9r----------------------------------------------------|
A|-------9r----------------------------------------------------------|
E|-------------------------------------------------------------------|








Outro: [Guitar 1] after drum build up (2:06 to end)


                                                                                                           


e|----------------------------------------------------------------------------------
B|----------------------------------------------------------------------------------
G|--11-11-11-----9-----8-----8h9p8---11-----9-----8-----8h9p8---11-----9-----8------
D|-----------9-9---9-9---9-9-------9----9-9---9-9---9-9-------9----9-9---9-9---9-9-9
A|----------------------------------------------------------------------------------
E|----------------------------------------------------------------------------------








Outro: [Guitar 2] after drum build up (2:06 to end) repeat over and over until the end


                                                                                                           


e|-------------------------------------------------------------------|
B|-------------------------------------------------------------------|
G|--------9----------------------------------------------------------|
D|-9------9-x16------------------------------------------------------|
A|-9-x16--7----------------------------------------------------------|
E|-7-----------------------------------------------------------------|








End:


                                                                                                          


e|-------------------------------------------------------------------|
B|-------------------------------------------------------------------|
G|---------------------8---------------------------------------------|
D|---------------------9----------------------9----------------------|
A|---------------------9----------------------9----------------------|
E|-Guitar 1 ends with--0--Guitar 2 ends with--7----------------------|



Important: The song above is NOT stored on the Chordie server. The original song is hosted at www.xguitar.com. Chordie works as a search engine and provides on-the-fly formatting. Chordie does not index songs against artists'/composers' will. To remove this song please click here.

This song is displayed as text-only. Transposing and tuning is only available for chordpro-songs.

Login - add to songbook

Rating click stars to rate

Layout
Accuracy

SHARE PAGE  




You need to log in to post comments