Guitar Tabs, Chords and Lyrics


Sell My Old Clothes, I'm Off to Heaven    Saves The Day



everything is in the order it appears in the song.
Figure out yourself how many times it's played.

e |---------------------------------|
B |---------------------------------|
G |-5-5-5-5-5-5-5-5-----------------|
D |-5-5-5-5-5-5-5-5-2-2-2-2-3-3-5-5-|
A |-3-3-3-3-0-0-0-0-2-2-2-2-3-3-5-5-|
E |-----------------0-0-0-0-1-1-3-3-|

e |-----------------------------------------------------|
B |-----------------------------------------------------|
G |-2-2-2-2-2-2-----------------------------------------|
D |-2-2-2-2-2-2-------5-5-5-5-5-5-------3-3-3-3-X-X-X-X-|
A |-0-0-0-0-0-0-3-2-0-5-5-5-5-5-5-3-2-0-3-3-3-3-X-X-X-X-|
E |-------------------3-3-3-3-3-3-------1-1-1-1-X-X-X-X-|

e |---------------------------------------------------|
B |---------------------------------------------------|
G |-2-2-2-2-2-2---------------------------------------|
D |-2-2-2-2-2-2-------5-5-5-5-5-5-------3-3-3-3--3--3-|
A |-0-0-0-0-0-0-3-2-0-5-5-5-5-5-5-3-2-0-3-3-3-3--3--3-|
E |-------------------3-3-3-3-3-3-------1-1-1-1--1--1-|

e |-----------------------------------------------------------------|
B |-----------------------------------------------------------------|
G |-----5-5-4-4-0-0-----5-5-4-4-0-0-----5-5-4-4-0-0-----5-5-4-4-0-0-|
D |---------------------------------2-2-------------3-3-------------|
A |-3-3-------------0-0---------------------------------------------|
E |-----------------------------------------------------------------|

e |-----------------------------------------------------|
B |-----------------------------------------------------|
G |-2-2-2-2-2-2-----------------------------------------|
D |-2-2-2-2-2-2-------5-5-5-5-5-5-------3-3-3-3-X-X-X-X-|
A |-0-0-0-0-0-0-3-2-0-5-5-5-5-5-5-3-2-0-3-3-3-3-X-X-X-X-|
E |-------------------3-3-3-3-3-3-------1-1-1-1-X-X-X-X-|

e |---------------------------------------------------|
B |---------------------------------------------------|
G |-2-2-2-2-2-2---------------------------------------|
D |-2-2-2-2-2-2-------5-5-5-5-5-5-------3-3-3-3--3--3-|
A |-0-0-0-0-0-0-3-2-0-5-5-5-5-5-5-3-2-0-3-3-3-3--3--3-|
E |-------------------3-3-3-3-3-3-------1-1-1-1--1--1-|

e |-------------------------------------------------|
B |-------------------------------------------------|
G |-2-2-2-2-4-5-5-5-5-----------------10-10-10-9--7-|
D |-2-2-2-2-4-5-5-5-5-5-5-5-5-5-5-5-5-10-10-10-9--7-|
A |-0-0-0-0-2-3-3-3-3-5-5-5-5-5-5-5-5-8--8--8--7--5-|
E |-------------------3-3-3-3-3-3-3-3---------------|

e |--------------------------------------------------------|---|
B |--------------------------------------------------------|---|
G |--5-5-5--5----------------------------------------------|-5-|
D |--5-5-5--5-5-5-5--5-7-7-7--7-2-2-2--2-3-3-3--3-5-5-5--5-|-5-|
A |--3-3-3--3-5-5-5--5-7-7-7--7-2-2-2--2-3-3-3--3-5-5-5--5-|-3-|
E |-----------3-3-3--3-5-5-5--5-0-0-0--0-1-1-1--1-3-3-3--3-|---|

e |-----------------------------------------------------------------|
B |-----------------------------------------------------------------|
G |-----5-5-4-4-0-0-----5-5-4-4-0-0-----5-5-4-4-0-0-----5-5-4-4-0-0-|
D |---------------------------------2-2-------------3-3-------------|
A |-3-3-------------0-0---------------------------------------------|
E |-----------------------------------------------------------------|

e |-----------------------------------------------------|
B |-----------------------------------------------------|
G |-2-2-2-2-2-2-----------------------------------------|
D |-2-2-2-2-2-2-------5-5-5-5-5-5-------3-3-3-3-X-X-X-X-|
A |-0-0-0-0-0-0-3-2-0-5-5-5-5-5-5-3-2-0-3-3-3-3-X-X-X-X-|
E |-------------------3-3-3-3-3-3-------1-1-1-1-X-X-X-X-|

e |---------------------------------------------------|
B |---------------------------------------------------|
G |-2-2-2-2-2-2---------------------------------------|
D |-2-2-2-2-2-2-------5-5-5-5-5-5-------3-3-3-3--3--3-|
A |-0-0-0-0-0-0-3-2-0-5-5-5-5-5-5-3-2-0-3-3-3-3--3--3-|
E |-------------------3-3-3-3-3-3-------1-1-1-1--1--1-|

e |-------------------------------------------------|
B |-------------------------------------------------|
G |-2-2-2-2-4-5-5-5-5-----------------10-10-10-9--7-|
D |-2-2-2-2-4-5-5-5-5-5-5-5-5-5-5-5-5-10-10-10-9--7-|
A |-0-0-0-0-2-3-3-3-3-5-5-5-5-5-5-5-5-8--8--8--7--5-|
E |-------------------3-3-3-3-3-3-3-3---------------|

e |--------------------------------------------------------|----|
B |--------------------------------------------------------|----|
G |--5-5-5--5----------------------------------------------|-5\\-|
D |--5-5-5--5-5-5-5--5-7-7-7--7-2-2-2--2-3-3-3--3-5-5-5--5-|-5\\-|
A |--3-3-3--3-5-5-5--5-7-7-7--7-2-2-2--2-3-3-3--3-5-5-5--5-|-3\\-|


Important: The song above is NOT stored on the Chordie server. The original song is hosted at www.xguitar.com. Chordie works as a search engine and provides on-the-fly formatting. Chordie does not index songs against artists/composers will. To remove this song please click here.

This song is displayed as text-only. Transposing and tuning is only available for chordpro-songs.

Login - add to songbook

Rating click stars to rate

Layout
Accuracy

SHARE PAGE  




You need to log in to post comments