Guitar Tabs, Chords and Lyrics


The Art of Misplacing Firearms    Saves The Day



-------------------------------------------------------------------------------
THE ART OF MISPLACING FIREARMS - Saves the Day
-------------------------------------------------------------------------------

By:Chad
Phocuschad@yahoo.com

This song is really cool. I was suprised not to see it on here.
It is off a comp CD. You can prob. find it on Morphious or something
since Napster is gone. Here goes, I think I made the tab a little harder
then it really is.

-=-Intro-=-
e|-------------------------|
B|-------------------------|
G|-----9-8---------9-8-----|X2
D|---9-----9-----9-----9---|
A|------------7------------|
E|-9-----------------------|

Drums Come In
e|--------------------| ----------------------|
B|--------------------| ----------------------|
G|-----9-8------9-8---|X2 ------9-8-------8-----|X2
D|---9-----9--9-------| ----7-----7---7---9---|
A|--------------------| ----------------------|
E|-9--------0---------| --7---------7---------|
do this through the talking part ( 3x )

-=-pre heavy part-=-
e|-----------B---------------|
B|-----------A---------------|
G|-----------S----------9----|
D|-11--11--7-S-7---7-7--9----|
A|-11--11--7---7---7-7--7----|
E|-9---9---5---5---5-5-------|

-=-Verse 1-=-
e|---------------------------|
B|---------------------------|
G|-------------------9-9-9---|X4
D|-9-9-9-9-9-9-7-7-7-9-9-9---|
A|-9-9-9-9-9-9-7-7-7-7-7-7---|
E|-7-7-7-7-7-7-5-5-5---------|

e|--------------------| ------------------------------|
B|--------------------| ------------------------------|
G|-----9-8------9-8---|X2 ------9-8-------8-------9-8---|
D|---9-----9--9-------| ----7-----7---7---9---7-----7-|
A|--------------------| ------------------------------|
E|-9--------0---------| --7---------7-------7---------|

e|----------------|
B|----------------|
G|-11-11-11/13\\11-|
D|-x--x--x-/x-\\x--|
A|-9--9--9-/11\\9--|
E|----------------|

-=-Verse 2-=-
e|---------------------------|
B|---------------------------|
G|-------------------9-9-9---|
D|-9-9-9-9-9-9-7-7-7-9-9-9---|
A|-9-9-9-9-9-9-7-7-7-7-7-7---|
E|-7-7-7-7-7-7-5-5-5---------|

e|---------------------------|
B|-----------------------s---|
G|-----------------s-9-9-t---|
D|-9-9-9-9-9-9-7-7-t-x-x-o---|
A|-9-9-9-9-9-9-7-7-o-7-7-p---|
E|-7-7-7-7-7-7-5-5-p---------|

e|---------------------------|
B|---------------------------|
G|-------------------9-9-9---|
D|-9-9-9-9-9-9-7-7-7-9-9-9---|
A|-9-9-9-9-9-9-7-7-7-7-7-7---|
E|-7-7-7-7-7-7-5-5-5---------|

e|----------------|
B|----------------|
G|-11-11-9-8\\9/8--|
D|-x--x--x-x\\x/x--|
A|-9--9--7-6\\7/6--|
E|----------------|

e|--------------------| ------------------------------|
B|--------------------| ------------------------------|
G|-----9-8------9-8---|X2 ------9-8-------8-------9-8---| pick scrapes
D|---9-----9--9-------| ----7-----7---7---9---7-----7-|
A|--------------------| ------------------------------|
E|-9--------0---------| --7---------7-------7---------|

e|--------------------| ------------------------------|
B|--------------------| ------------------------------|
G|-----9-8------9-8---|X2 ------9-8-------8-------9-8---|
D|---9-----9--9-------| ----7-----7---7---9---7-----7-|
A|--------------------| ------------------------------|
E|-9--------0---------| --7---------7-------7---------|

e|----------------|
B|----------------|
G|-11-11-11/13\\11-|
D|-x--x--x-/x-\\x--|
A|-9--9--9-/11\\9--|
E|----------------|

-=-Verse 3-=-
e|---------------------------|
B|---------------------------|
G|-------------------9-9-9---|X8
D|-9-9-9-9-9-9-7-7-7-9-9-9---|
A|-9-9-9-9-9-9-7-7-7-7-7-7---|
E|-7-7-7-7-7-7-5-5-5---------|

-=-Outro-=-
Play above 2 times but PM
Then this
e|----------------| ---|
B|----------------| ---|
G|-11-11-9-8\\9/8--|X2 ---|
D|-x--x--x-x\\x/x--| -9-|
A|-9--9--7-6\\7/6--| -9-|
E|----------------| -7-|

Good Luck. Any questions, E-mail me (phocuschad@yahoo.com)



Important: The song above is NOT stored on the Chordie server. The original song is hosted at www.xguitar.com. Chordie works as a search engine and provides on-the-fly formatting. Chordie does not index songs against artists'/composers' will. To remove this song please click here.

This song is displayed as text-only. Transposing and tuning is only available for chordpro-songs.

Login - add to songbook

Rating click stars to rate

Layout
Accuracy

SHARE PAGE  




You need to log in to post comments