Guitar Tabs, Chords and Lyrics


When It Isn't Like It Should Be    Saves The Day



Saves The Day
When It Isn't Like It Should Be
Ups & Downs - Early Recording And B-Sides

Tabbed By: Lewis Richards (lewis_ricardo@hotmail.com

Standard e tuning  *=Palm muting, /=slide

Simple song, fun to play.

Intro
e|------------------------------------------------
b|------------------------------------------------
g|-5----------------------------------------------
d|-5-(let ring)-----5-----------------------------
a|-3-------------3--------------------------------
e|------------------------>>------

Verse x4
e|------------------------------------------------
b|------------------------------------------------
g|-55555-55555------------------------------------
d|-55555-55555-222222-333333----------------------
a|-33333-22222-222222-333333----------------------
e|-------------000000-111111----------------------

Chorus
e|-------------------------------------------------------
b|-------------------------------------------------------
g|-------------------------------------------------------
d|-55555555----------------------------------------------
a|-33333333-55555555-77777777-22222222-33333333-55555555-
e|----------33333533-55555555-00000000-11111111-33333333-
   ******** ******** ******** ******** ******** ********

Post Chorus
e|------------------------------------
b|------------------------------------
g|------------------------------------
d|-55555555---------------------------
a|-33333333-55555555/3------
e|----------33333333/1----------------
   ******** *******

Outro x4
e|------------------------------------------------
b|------------------------------------------------
g|-555555555--------------------------------------
d|-555555555-55555555-3333333333333333------------
a|-333333333-55555555-3333333333333333------------
e|-----------33333333-1111111111111111------------

Finish on
e|------------------------------------------------
b|------------------------------------------------
g|-5----------------------------------5-----------
d|-5-(let ring)-----------------------x-----------
a|-3----------------------------------3-----------


Important: The song above is NOT stored on the Chordie server. The original song is hosted at www.xguitar.com. Chordie works as a search engine and provides on-the-fly formatting. Chordie does not index songs against artists'/composers' will. To remove this song please click here.

This song is displayed as text-only. Transposing and tuning is only available for chordpro-songs.

Login - add to songbook

Rating click stars to rate

Layout
Accuracy

SHARE PAGE  




You need to log in to post comments