In Trance

Scorpions

 C#C#C#
e|---------------------------------------------------------------------------------------------------|
B|------4--3-4----------------4--3-4------------------4--3-4-----------------------------------------|
G|----5--------4------------5--------4--------------5--------4---------------------------------------|
D|--6---------------------6-----------------------6--------------------------------------------------|
A|---------------------------------------------------------------------------------------------------|
E|---------------------------------------------------------------------------------------------------|


Gtr.2
e|---------------------------------------------------------------------------------------------------|
B|-----------------5--4--------------------5---4-------5-4-5-7-5--9--7h9p7--5-5h7-5h7p5---4-5--------|
G|----------------4--4-------------------4---4------------------------------------------5----6-4-4h5-|
D|---------------------------------------------------------------------------------------------------|
A|---------------------------------------------------------------------------------------------------|
E|---------------------------------------------------------------------------------------------------|


Repita a intro da Gtr.1durante a parte cantada também , e a Guitarra 2 faz os seguintes RIFFS:

e|------------------------7-5-7-5-7-5--------|
B|-----------------------------------7-5-4---|
G|-------------------------------------------|
D|-------------------------------------------|
A|-------------------------------------------|
E|-------------------------------------------|

...sun beggins to shine

e|------------------------------------------------|
B|-----4-5--9--7h9p7-5----------------------------|
G|-5--------------------------------4-5--7-5--4-2-|
D|--------------------------------5---------------|
A|------------------------------------------------|
E|------------------------------------------------|

The day did sneak up from the night

e|--------------------7-5-5--7-5-5--7-5-5--7-5-5--|
B|------------------------------------------------|
G|------------------------------------------------|
D|------------------------------------------------|
A|------------------------------------------------|
E|------------------------------------------------|

...litle taste of life

e|------------------------------------------|
B|----------------5h7-5---------------------|
G|--------------5---------------------------|
D|------------6-----------------------------|
A|------------------------------------------|
E|------------------------------------------|

...for a while

 C#m
But I'm in trance
 E
Hey baby tell me can't you hear me calling
 B
I'm in trance
 C#mEB
I take too much in a saturday night...hey, hey
 C#mE
Hey baby tell me can't you hear me calling
 B
I'm in trance
 C#mE
I wanna try to stop this life...

Use o mesmo que na primeira estrofe na segunda estrofe

SOLO:

Não conseguí tirar o solo exato porém pelo que tirei dá para ter uma noção.

e|---------------------7h8-7-5-5h7-5-------------------------7-7h8-7-5-5h7-5----|
B|-----------------------------------7---------------------------------------7--|
G|--7-7-7-7-7-5-5-5h7---------------------7-7-7-7-7-5-5-5h7---------------------|
D|------------------------------------------------------------------------------|
A|------------------------------------------------------------------------------|
E|------------------------------------------------------------------------------|
e|-----------------------------------------------------------------------------------------|
B|--13-13-13-13-13-13-13-13-13--11-11-11-11-11-11-11-11--9-9-9-9-9-9-9-9---7-7-7-7-7-7-7-7-|
G|-----------------------------------------------------------------------------------------|
D|-----------------------------------------------------------------------------------------|
A|-----------------------------------------------------------------------------------------|
E|-----------------------------------------------------------------------------------------|
e|----------------------------------------------------------14-14-14-14-14-14-14-14-14-14-14-14-14-14-14-14-|
B|-6-6-6-6-5-5-5-5-4-4-4-4-3-3-3-3-3-3-3-3-3-3-3-3-3-3-3-3--------------------------------------------------|
G|----------------------------------------------------------------------------------------------------------|
D|----------------------------------------------------------------------------------------------------------|
A|----------------------------------------------------------------------------------------------------------|
E|----------------------------------------------------------------------------------------------------------|
e|-16^17b16-----17h18--15h16--14h15----|
B|----------14-------------------------|
G|-------------------------------------|
D|-------------------------------------|
A|-------------------------------------|
E|-------------------------------------|


NESSA PARTE CANTADA, USE ESSE RIFF:

Gtr.1
 C#BAC#
e|------------------------------------|
B|------------------------------------|
G|-6--------------4--------------6----|
D|-6--------------4---------7----6----|
A|-4--------------2---------7----4----|
E|--------------------------5---------|


Gtr.2

e|-----------------------------------|
B|-----------------------------------|
G|------------4h5-4-----2h3-2--------|
D|--------2-4--------4---------4-----|
A|-4----4------------------------4---|
E|-----------------------------------|


AAAAAH AAH... AH.

This Is Very Beutifull Song.Isn't It?
enjoy.


A B C# C#m E
variations - click chord images
Transpose chords:
Tuning:
Cool service:
View: Size:
A  A  A
Rating:
Layout:
  • Currently 4.5/5 Stars.
  • 1
  • 2
  • 3
  • 4
  • 5
 
Accuracy:
  • Currently 4.5/5 Stars.
  • 1
  • 2
  • 3
  • 4
  • 5
 
click stars to rate
Chordie recommends:
Learn how to play guitar at JamPlay.com
Songbook:
Login to add this song to your songbook
Support the artist
Preview/buy this song
MSN Music
Why this non-profit ad?

 
login to add comments/video/corrections