"yes"; ?> Riot of Your Time by Scorpions - guitar chords, guitar tabs and lyrics - chordie

Riot of Your Time

Scorpions

E-----------------------------8-------------------------------------|

B-8---------------------------7-------------------------------------|
G-9---------------------------9-------------------------------------|
D-9---------------------------9-------------------------------------|
A-7---------------------------7-------------------------------------|
E-------------------------------------------------------------------|
E-----------------------------|
B-----------------------------|
G-----------------------------|
D-----------------------------|
A-77-7--------/9--------------|
E-----------------------------| Rpt
E-------------------------------------------------------------------|
B-------------------------------------------------------------------|
G-------------------------------------------------------------------|
D-------------------------------------------------------------------|
A-77-7-------/9---------------10-------------p9---------------------|
E-------------------------------------------------------------------|
E[--------------------------------------------------------------|
B[--------------------------------------------------------------|
G[--------------------------------------------------------------|
D[-5--------4--------5---------4---------5----------(5)---------|
A[-3--------2--------3---------2---------3----------(3)---------|
E[--------------------------------------------------------------|
[Guitar 2
E[--------------------------------------------------------------|
B[--------------------------------------------------------------|
G[--------------------------------------------------------------|
D[-5--------4--2--4--5/7-5-4-5p4--2--5-/7-5p4-7-5p4-7-5p4-7-5p4-|
A[--------------------------------------------------------------|
E[--------------------------------------------------------------|


Chorus

Guitar 1
E[---------------------------------|
B[---------------------------------|
G[-9-------12----------------------|
D[-9-------12------10------9-------|
A[-7-------10------10------9-------|
E[-----------------8-------7-------|

[Guitar 2
[ ~~~~~~ ~~~~~~ ~~~~~~ ~~
E[---------------------------------|
B[---------------------------------|
G[-9-------9-------9---------------|
D[---------------------------------|
A[-----7-------7------7----6-7-9---|
E[-------0-------0------0----------| Rpt


Guitar 1
E[---------------------------------|
B[---------------------------------|
G[-9-------12----------------------|
D[-9-------12------10------9-------|
A[-7-------10------10------9-------|
E[-----------------8-------7-------|

[Guitar 2
[
E[---------------------------------|
B[---------------------------------|
G[-12------12------12--------------|
D[-------------------------9-------|
A[----10\7----10\7----10\7---------|
E[---------------------------------|


Rpt Verse, Bridge and Chorus

Backing for guitar solo

E------------------------------------|
B------------------------------------|
G-9--------7-----------------5-------|
D-9--------7--------5--------5-------|
A-7--------5--------5--------3-------|
E-------------------3----------------|
E------------------------------------|
B------------------------------------|
G-9--------7-----------------4-------|
D-9--------7--------5--------4-------|
A-7--------5--------5--------2-------|
E-------------------3----------------| Rpt


Guitar solo

Guitar 1
~~~~ ~~~
E[-----------------------------------------------------------|
B[-----------------------------------------------------------|
G[-----------------------------------------------------9-11b-|
D[-----9----------7-9-------9---9/12------12----12-13b-------|
A[-7-10--9------10----7-9-10--10-----12\9----14--------------|
E[---------10-7----------------------------------------------|

[Guitar 2
[ ~~~~~ ~~~
E[-----------------------------------------------------------|
B[-----12---------1012------12--1215------15-12-15-16b-1618b-|
G[-9-12--11-----12----9-1112--12-----14\12-------------------|
D[---------12-9----------------------------------------------|
A[-----------------------------------------------------------|
E[-----------------------------------------------------------|

Guitar 1
~~~~ ~~~
E[-----------------------------------------------------------|
B[----13-14------------------16b--x\-------------------------|
G[-12-------11-------12-11-9------x\-----5\4-----------------|
D[-------------12\9--------------------5-----4--/12-9-10/13--|
A[-----------------------------------7---------5-------------|
E[-----------------------------------------------------------|

[Guitar 2
[ ~~~~~ ~~~~
E[-15-20-19-14-------15-14-1223b-----------------------------|
B[-------------15\12---------------------1312---/15-1213/16--|
G[-----------------------------------9-12----117-------------|
D[-----------------------------------------------------------|
A[-----------------------------------------------------------|
E[-----------------------------------------------------------|


Guitar 1
~~~~~~~~~~~~~~~~~~~
E[--------------------|
B[--------------------|
G[-9--11--12--14--16--|
D[--------------------|
A[--------------------|
E[--------------------|

[Guitar 2
[ ~~~~~~~~~~~~~~~~~~~~
E[-12-14--15--17--19--|
B[--------------------|
G[--------------------|
D[--------------------|
A[--------------------|
E[--------------------|


Guitar 1
E[----------------------------------------|
B[----------------------------------------|
G[-----9-------------7--------------------|
D[-----9-------------7--------------------|
A[-777-7---------555-5--------0-2-3-5-3-2-|
E[----------------------------------------|

[Guitar 2
E[----------------------------------------|
B[-----17\-----------15\------------------|
G[----------------------------------------|
D[----------------------------7-9-1012109-|
A[----------------------------------------|
E[----------------------------------------|

[Guitar 3
E[-----24\-----------22\------------------|
B[----------------------------------------|
G[----------------------------------------|
D[----------------------------------------|
A[----------------------------------------|
E[----------------------------------------|


Guitar 1
~~~~~~~~~~~~~~
E[-------------------------------------------------------------------|
B[-------------------------------------------------------------------|
G[-----9-------------7-----------------------------------------------|
D[-----9-------------7--------------------------5--------------------|
A[-777-7---------555-5--------0-2-3-5-3-2-5-7-8---8-7-8------(8)-----|
E[-------------------------------------------------------------------|

[Guitar 2
E[-------------------------------------------------------------------|
B[-----17\-----------15\---------------------------------------------|
G[----------------------------------------7-9-1012109-10-----(10)----|
D[----------------------------7-9-1012109----------------------------|
A[-------------------------------------------------------------------|
E[-------------------------------------------------------------------|

[Guitar 3
E[-----24\-----------22\---------------------------------------------|
B[----------------------------------------------------16b-----r------|
G[-------------------------------------------------------------------|
D[-------------------------------------------------------------------|
A[-------------------------------------------------------------------|
E[-------------------------------------------------------------------|


Rpt intro guitar chords to fade with ad lib guitar and drums.

END


variations - click chord images
Transpose chords:
Tuning:
Cool service:
View: Size:
A  A  A
Rating:
Layout:
  • Currently 0/5 Stars.
  • 1
  • 2
  • 3
  • 4
  • 5
 
Accuracy:
  • Currently 3/5 Stars.
  • 1
  • 2
  • 3
  • 4
  • 5
 
click stars to rate
Chordie recommends:
Learn to play guitar with video-based, online guitar lessons at JamPlay.com
Songbook:
Login to add this song to your songbook
Support the artist
Preview/buy this song
MSN Music
Why this non-profit ad?

 
login to add comments/video/corrections