Guitar Tabs, Chords and Lyrics


Fade Away   Seether

e------------------------------------------------------------------         }


b------------------------------------------------------------------         }


g------------------------------------------------------------------         }

d------------------------------------------------------------------ }
a--------2-----3--2-----2---------2-----3--2-----2----------------- }
E--1--1-----1--------1------3--3-----3--------1-------------------- }
e------------------------------------------------------------------ } through verses)
b------------------------------------------------------------------ }
g------------------------------------------------------------------ }
d------------------------------------------------------------------ }
a------------------------------------------------------------------ }
E--1/5--5--5--5--5/7--7--7--7--7/8--8--8--8--8/10------------------ }
e---5------ e---10--------
b---7------ b-------10----
g---7------ g------------- (when the bass plays the top D)
d---5------ d-------------
a---5------ a-------------
E---5------ E-------------
   [F]               [G]                      [Am]                                                               
e--------------|---------------------|-----------------------------        }
b-----1-----1--|---------------------|-----------------------------        }
g--------------|----4--4--4h5p4------|-----5--7p5-----5------------        }
d--3-----3-----|--5---------------5--|--7----------7----7\\(3)------        }   X4
a--------------|---------------------|-----------------------------        }
E--------------|---------------------|-----------------------------        }

Chorus

To[G]day's the d[F]ay we'll fade a[Am]way, [C]oh
To[G]day's the d[F]ay we'll fade a[Am]way, [C]oh
To[G]day's the [F]day we'll find our [Am]way, g[C]rown
To[G]day's the [F]day we'll fade a[Am]way

Bridge(X2)
(listen to track for strumming pattern)
[Em]    [D] And I'm coming ba[Em]ck
    [D] And I'm taking ba[Em]ck
    [D] Well, everything I can
     It's b[C]reaking me up, and tearing me up it's all [D]I h[Am]ave


Solo thingy(again, listen to the track)
e-----------7--8--7-----0---8--7-----0-----------------------------
b--8~--10~-----------8------------8------8~------------------------
g------------------------------------------------------------------
d------------------------------------------------------------------
a------------------------------------------------------------------
E------------------------------------------------------------------
e--0--0--0--0--2--2--2--2--3--3--3--3--3/5-------------------------
b------------------------------------------------------------------
g------------------------------------------------------------------
d------------------------------------------------------------------
a------------------------------------------------------------------
E------------------------------------------------------------------


______________________________________________________________________________

That's it!!!

NJOY!!!


(comments: harrikemp@ananzi.co.za)

Important: The song above is NOT stored on the Chordie server. The original song is hosted at www.xguitar.com. Chordie works as a search engine and provides on-the-fly formatting. Chordie does not index songs against artists'/composers' will. To remove this song please click here.

Text color:
Chord color:
Chord grids: 
Font size:    
Page size: 

Am C D Em F G
variations - click chord images

Login - add to songbook

Transpose chords

Tuning

Rating click stars to rate

Layout
Accuracy

SHARE PAGE  




You need to log in to post comments