Guitar Tabs, Chords and Lyrics


Gasoline    Seether



This is my first tab, so it may not be very good...any questions, comments,
criticisms, etc., send them to chamber_09@yahoo.com
--Dan

Key: \\ = Slide down
     / = Slide up
^(1/2) = Bend up a half step

Band: Seether
Song: "Gasoline"
Album: Disclaimer
Tabbed by: Dan Evans

Tuning: Standard (low/high) E A D G B E

Intro
Distorted
(Feedback)
E|---------------
B|---------------
G|---------------
D|-2-2xx-x-x-x-xx
A|-2-2xx-x-x-x-xx   (5x)
E|\\0-0xx-x-x-x-xx
                              (guitar 2, distorted)
                              (played over "8^(1/2)-5", last time through)
E|----------------------      E|-----
B|----------------------      B|-----
G|----------------------      G|-----
D|2-2/77-7-5-x-8^(1/2)-5 (4x) D|9-9-9
A|2-2                         A|x-x-x
E|0-0                         E|7-7-7

(Verse I)
E|--------------
B|--------------
G|--------------
D|2-2xx-x-x-x-xx
A|2-2xx-x-x-x-xx
E|0-0xx-x-x-x-xx
"Last night I saw that beauty queen..."

E|---
B|---
G|---
D|2-2
A|2-2 (rest) (4x)
E|0-0

E|--------------
B|--------------
G|--------------
D|2-2xx-x-x-x-xx
A|2-2xx-x-x-x-xx  (4x)
E|0-0xx-x-x-x-xx
"Wanna waste her monthly blood..."

Chorus
E|--------------
B|--------------
G|----777-7-----
D|2-2-777-7-x555
A|2-2-555-5-x555
E|0-0-------x333

Verse II
E|-------------------------
B|-------------------------
G|-------------------------
D|(rest) 77-7-5-x-8^(1/2)-5
A|-------------------------
E|-------------------------
				   (Guitar 2, last time, over x-8^(1/2)-5)
E|----------------------           E|
B|----------------------           B|
G|----------------------           G|
D|2-2-77-7-5-x-8^(1/2)-5   (3x)    D|9-9-9
A|2-2-------------------	   A|x-x-x
E|0-0-------------------	   E|7-7-7

E|---
B|---
G|---
D|2-2  (rest)
A|2-2
E|0-0

E|-----------------
B|-----------------
G|-----------------
D|(rest)x-8^(1/2)-5 (2x)
A|-----------------
E|-----------------

E|--------------
B|--------------
G|--------------
D|2-2xx-x-x-x-xx  (4x)
A|2-2xx-x-x-x-xx
E|0-0xx-x-x-x-xx

(Chorus)

Breakdown
E|-----------------------
B|-----------------------
G|-----------------------
D|12\\10-10-10\\9-9-9\\7\\5\\2  (4x)
A|12\\10-10-10\\9-9-9\\7\\5\\2
E|10\\ 8- 8- 8\\7-7-7\\5\\3\\0

(Clean)
  P.M.............
E|----------------
B|----------------
G|7-7-99-9-9-x-9-9  (4x)
D|----------------
A|----------------
E|----------------

(Distorted)
E|--------------
B|--------------
G|--------------
D|2-2xx-x-x-x-xx  (4x)
A|2-2xx-x-x-x-xx
E|0-0xx-x-x-x-xx

(Chorus) (2x)

Outro (over main riff until last four times)
E|-----------------
B|-----------------
G|9-9-9-9-9-9-9-9-9 (4x)
D|-----------------
A|-----------------
E|-----------------

(With wah)
E|-----------------
B|-----------------
G|9-9-9-9-9-9-9-9-9 (4x)
D|-----------------
A|-----------------
E|-----------------

(With wah)                  (Second guitar)
E|-----------------         E|-----------------
B|-----------------         B|-----------------
G|9-9-9-9-9-9-9-9-9 (4x)    G|-----------------
D|-----------------         D|9-9-9-9-9-9-9-9-9
A|-----------------         A|-----------------
E|-----------------         E|-----------------




Last night I saw that beauty queen
Watched her paint her face on
I wanna be that magazine
That she bases life on
I wanna waste her monthly blood
Wanna get some on my love
Wanna get some gasoline
And burn the house down

She’s got nothing to say
She’s got bills to pay
She’s got no one to hate
Except for me

Last night I saw that beauty queen
She’s getting high on Revlon
I wanna be that magazine
That she wastes her life on
I wanna waste her monthly blood
Wanna get some on my love
Wanna get some gasoline
And burn the house down

She’s got nothing to say
She’s got bills to pay
She’s got no one to hate
Except for me
Me.

When I saw that beauty queen
And watched her paint her face on
I wanna be the one unclean
That she wipes her ass on
Wanna waste her monthly blood
Wanna get some on my love
Wanna get some gasoline
And burn the house down

She’s got nothing to say
She’s got bills to pay
She’s got no one to hate
Except for me
She’s got nothing but shame
She takes pills for pain
She’s got no one to blame
Except for me.


Important: The song above is NOT stored on the Chordie server. The original song is hosted at www.xguitar.com. Chordie works as a search engine and provides on-the-fly formatting. Chordie does not index songs against artists'/composers' will. To remove this song please click here.

This song is displayed as text-only. Transposing and tuning is only available for chordpro-songs.

Login - add to songbook

Rating click stars to rate

Layout
Accuracy

SHARE PAGE  




You need to log in to post comments