Broken

Seether

NOTE--------------------------------#


------#


------#

-|-2h3-3-3--2h3-3-3--2h3-3-3--0h2-3p2-0h2-3p2------------------------
-|-------------------------------------------------------------------
-|-------------------------------------------------------------------
-|-------------------------------------------------------------------
-|-------------------------------------------------------------------
-|-------------------------------------------------------------------

 EmCEmCEmCDD
-|--0-------3----0-------3-----0------3---2-2h3p2--2-2h3p2-----------
-|--0-------3----0-------3-----0------3---3-3------3-3---------------
-|--0-------0----0-------0-----0------0---2-2------2-2---------------
-|--2-------2----2-------2-----2------2------------------------------
-|--2-------3----2-------3-----2------3------------------------------
-|--0-------0----0-------0-----0------0------------------------------


1st Verse

 EmCEmCEmC
 I wanted you to know, I love the way you laugh, I want to hold you high

D(with the hammer and pull off)
and steal your pain....away.

 EmCEmCEmC
 I keep your photograph, I know it serves me well, I want to hold you

D(with hammer and pull off)
high and steal your pain.

Chorus

 CEmCEmCEmC
Cause I'm broooken, but I'm ooopen, and I don't feeel like I am strong

 EmCEmCEmC
enough. Cause I'm broooken, when I'm looonesome, and I don't feeel

 EmCEm
right, when you're gone away.   (right after this just play the verse
fill which is just the same thing as the intro,it also has the guitar
part in the background with it)

2nd Verse

 EmCEmCEmC
 The worst is over now, and we can breath again, I want to hold you

D(with hammer and pull off)
high, and steal my pain....away.

 EmCEm
 There's so much left to learn, and no

 CEmCD
one else to fight, I want to hold you high and steal your pain.

Repeat the chorus.

Right here before the solo theres a small little harmonic and its easy
to play, it's also played at the end.

-|-12X---------------------------------------------------------------
-|-12X---------------------------------------------------------------
-|-12X---------------------------------------------------------------
-|-12X---------------------------------------------------------------
-|-------------------------------------------------------------------
-|-------------------------------------------------------------------


While the solo is playing, the other guitar is just play the verse fill
(Em,C,Em,C,Em,C,D,D) and the D is played without the hammer on and pull
off.

Solo.

-|-------------------------------------------------------------------
-|-------------------------------------------------------------------
-|----------------------------9-------------------------7------------
-|-----0h2-2/5-4-4h5p4\\2-2---9-9-----0h2-2/5-4-4h5p4h5-7-10-9-7h9-9-9
-|--0h2---------------------------0h2--------------------------------
-|-0-----------------------------0-----------------------------------
-|-------------------------------------------------------------------
-|-------------------------------------------------------------------
-|------------------------------9------------------------7-----------
-|-----0h2-2/5-4-4h5p4\\2-7-5-2-9------0h2-2/5-4-4h5p4h5-7-10-9-7h9-9-
-|--0h2----------------------------0h2-------------------------------
-|-0------------------------------0----------------------------------
-|-------------------------------------------------------------------
-|-------------------------------------------------------------------
-|-------------------------------------------------------------------
-|-9-----------------------------------------------------------------
-|-------------------------------------------------------------------
-|-------------------------------------------------------------------


Chorus again.

Then play the verse fill but you don't play the D with the hammer and
pull off.

During the verse fill, it has another part with harmonics which, after
trial and error I finally figured out.

-|-12X---------------12X---------------------------------------------
-|---12X---------------12X------20X----------------------------------
-|----------12X--------------------20X-------------------------------
-|-------12X--------------------------20X----------------------------
-|-------------------------------------------------------------------
-|-------------------------------------------------------------------

^Repeat then play this harmonic and Em chord.

-|-12X----0----------------------------------------------------------
-|-12X----0----------------------------------------------------------
-|-12X----0----------------------------------------------------------
-|-12X----2----------------------------------------------------------
-|--------2----------------------------------------------------------
-|--------0----------------------------------------------------------


Like I said, this is a very simple song.The solo is 100% correct.I'm
pretty sure the whole song is 100% correct because I edited it over and
over again.I checked it and double checked it again to make sure it was
right on.But, if you find a mistake,correction, or just want to comment
on the tab, please e-mail me at MoreOfNothing88@aol.com


C D Em
variations - click chord images
Transpose chords:
Tuning:
Cool service:
View: Size:
A  A  A
Rating:
Layout:
  • Currently 3.1/5 Stars.
  • 1
  • 2
  • 3
  • 4
  • 5
 
Accuracy:
  • Currently 2.7/5 Stars.
  • 1
  • 2
  • 3
  • 4
  • 5
 
click stars to rate
Chordie recommends:
Learn to play guitar with video-based, online guitar lessons at JamPlay.com
Songbook:
Login to add this song to your songbook
Support the artist
Preview/buy this song
MSN Music
Why this non-profit ad?

 
login to add comments/video/corrections